ISO-10303-21;
HEADER;
/****************************************************************
 * Generated by software with PDElib inside                    *
 * PDElib Version v51a, created Wed 11/30/2011                  *
 * ITI Transcendata (https://www.transcendata.com/)              *
 ****************************************************************/
FILE_DESCRIPTION((''),'2;1');
FILE_NAME('Drawing1.stp','2019-05-24T09:59:27',(''),(''),'Mechanical Desktop 2011','Mechanical Desktop 2011',', , ');
FILE_SCHEMA(('CONFIG_CONTROL_DESIGN'));
ENDSEC;
DATA;
#10=(NAMED_UNIT(*)PLANE_ANGLE_UNIT()SI_UNIT($,.RADIAN.));
#11=DIMENSIONAL_EXPONENTS(0.0,0.0,0.0,0.0,0.0,0.0,0.0);
#12=PLANE_ANGLE_MEASURE_WITH_UNIT(PLANE_ANGLE_MEASURE(0.0174532925),#10);
#16=(CONVERSION_BASED_UNIT('DEGREE',#12)NAMED_UNIT(#11)PLANE_ANGLE_UNIT());
#20=(NAMED_UNIT(*)SI_UNIT($,.STERADIAN.)SOLID_ANGLE_UNIT());
#24=(LENGTH_UNIT()NAMED_UNIT(*)SI_UNIT(.MILLI.,.METRE.));
#26=UNCERTAINTY_MEASURE_WITH_UNIT(LENGTH_MEASURE(0.000001),#24,'DISTANCE_ACCURACY_VALUE','');
#28=(GEOMETRIC_REPRESENTATION_CONTEXT(3)GLOBAL_UNCERTAINTY_ASSIGNED_CONTEXT((#26))GLOBAL_UNIT_ASSIGNED_CONTEXT((#16,#20,#24))REPRESENTATION_CONTEXT('','3D'));
#29=APPLICATION_CONTEXT('CONFIGURATION CONTROLLED 3D DESIGNS OF MECHANICAL PARTS AND ASSEMBLIES');
#30=APPLICATION_PROTOCOL_DEFINITION('INTERNATIONAL STANDARD','config_control_design',1995,#29);
#31=MECHANICAL_CONTEXT('3D Mechanical Parts',#29,'mechanical');
#32=PRODUCT('Product','Product',' ',(#31));
#33=PRODUCT_RELATED_PRODUCT_CATEGORY('detail',$,(#32,#130));
#34=PRODUCT_CATEGORY('part',$);
#35=PRODUCT_CATEGORY_RELATIONSHIP('None','None',#34,#33);
#36=PERSON('1','Design','Joe',$,$,$);
#37=ORGANIZATION($,'None','None');
#38=PERSON_AND_ORGANIZATION(#36,#37);
#39=PERSON_AND_ORGANIZATION_ROLE('design_owner');
#40=CC_DESIGN_PERSON_AND_ORGANIZATION_ASSIGNMENT(#38,#39,(#32,#130));
#41=PRODUCT_DEFINITION_FORMATION_WITH_SPECIFIED_SOURCE('None','None',#32,.BOUGHT.);
#42=PERSON('2','Creator','Joe',$,$,$);
#43=ORGANIZATION($,'None','None');
#44=PERSON_AND_ORGANIZATION(#42,#43);
#45=PERSON_AND_ORGANIZATION_ROLE('creator');
#46=CC_DESIGN_PERSON_AND_ORGANIZATION_ASSIGNMENT(#44,#45,(#41,#131));
#47=PERSON('3','Supplier','Joe',$,$,$);
#48=ORGANIZATION($,'None','None');
#49=PERSON_AND_ORGANIZATION(#47,#48);
#50=PERSON_AND_ORGANIZATION_ROLE('design_supplier');
#51=CC_DESIGN_PERSON_AND_ORGANIZATION_ASSIGNMENT(#49,#50,(#41,#131));
#52=APPROVAL_STATUS('approved');
#53=APPROVAL(#52,'None');
#54=PERSON('4','Approver','Joe',$,$,$);
#55=ORGANIZATION($,'None','None');
#56=PERSON_AND_ORGANIZATION(#54,#55);
#57=APPROVAL_ROLE('approver');
#58=APPROVAL_PERSON_ORGANIZATION(#56,#53,#57);
#59=COORDINATED_UNIVERSAL_TIME_OFFSET(8,$,.EXACT.);
#60=CALENDAR_DATE(1996,29,5);
#61=LOCAL_TIME(12,0,0.0,#59);
#62=DATE_AND_TIME(#60,#61);
#63=APPROVAL_DATE_TIME(#62,#53);
#64=CC_DESIGN_APPROVAL(#53,(#41,#131));
#65=SECURITY_CLASSIFICATION_LEVEL('unclassified');
#66=SECURITY_CLASSIFICATION('security','None',#65);
#67=CC_DESIGN_SECURITY_CLASSIFICATION(#66,(#41,#131,#693));
#68=APPROVAL_STATUS('approved');
#69=APPROVAL(#68,'None');
#70=PERSON('5','Approver','Joe',$,$,$);
#71=ORGANIZATION($,'None','None');
#72=PERSON_AND_ORGANIZATION(#70,#71);
#73=APPROVAL_ROLE('approver');
#74=APPROVAL_PERSON_ORGANIZATION(#72,#69,#73);
#75=COORDINATED_UNIVERSAL_TIME_OFFSET(8,$,.EXACT.);
#76=CALENDAR_DATE(1996,29,5);
#77=LOCAL_TIME(12,0,0.0,#75);
#78=DATE_AND_TIME(#76,#77);
#79=APPROVAL_DATE_TIME(#78,#69);
#80=CC_DESIGN_APPROVAL(#69,(#66));
#81=PERSON('6','Classifier','Joe',$,$,$);
#82=ORGANIZATION($,'None','None');
#83=PERSON_AND_ORGANIZATION(#81,#82);
#84=PERSON_AND_ORGANIZATION_ROLE('classification_officer');
#85=CC_DESIGN_PERSON_AND_ORGANIZATION_ASSIGNMENT(#83,#84,(#66));
#86=COORDINATED_UNIVERSAL_TIME_OFFSET(8,$,.EXACT.);
#87=CALENDAR_DATE(1996,29,5);
#88=LOCAL_TIME(12,0,0.0,#86);
#89=DATE_AND_TIME(#87,#88);
#90=DATE_TIME_ROLE('classification_date');
#91=CC_DESIGN_DATE_AND_TIME_ASSIGNMENT(#89,#90,(#66));
#92=DESIGN_CONTEXT('Design Context',#29,'design');
#93=PRODUCT_DEFINITION('None','None',#41,#92);
#94=PERSON('7','Creator','Joe',$,$,$);
#95=ORGANIZATION($,'None','None');
#96=PERSON_AND_ORGANIZATION(#94,#95);
#97=PERSON_AND_ORGANIZATION_ROLE('creator');
#98=CC_DESIGN_PERSON_AND_ORGANIZATION_ASSIGNMENT(#96,#97,(#93,#132));
#99=COORDINATED_UNIVERSAL_TIME_OFFSET(8,$,.EXACT.);
#100=CALENDAR_DATE(1996,29,5);
#101=LOCAL_TIME(12,0,0.0,#99);
#102=DATE_AND_TIME(#100,#101);
#103=DATE_TIME_ROLE('creation_date');
#104=CC_DESIGN_DATE_AND_TIME_ASSIGNMENT(#102,#103,(#93,#132));
#105=APPROVAL_STATUS('approved');
#106=APPROVAL(#105,'None');
#107=PERSON('8','Approver','Joe',$,$,$);
#108=ORGANIZATION($,'None','None');
#109=PERSON_AND_ORGANIZATION(#107,#108);
#110=APPROVAL_ROLE('approver');
#111=APPROVAL_PERSON_ORGANIZATION(#109,#106,#110);
#112=COORDINATED_UNIVERSAL_TIME_OFFSET(8,$,.EXACT.);
#113=CALENDAR_DATE(1996,29,5);
#114=LOCAL_TIME(12,0,0.0,#112);
#115=DATE_AND_TIME(#113,#114);
#116=APPROVAL_DATE_TIME(#115,#106);
#117=CC_DESIGN_APPROVAL(#106,(#93,#132));
#118=CARTESIAN_POINT('NONE',(0.0,0.0,0.0));
#119=DIRECTION('NONE',(0.0,0.0,1.0));
#120=DIRECTION('NONE',(1.0,0.0,0.0));
#121=AXIS2_PLACEMENT_3D('NONE',#118,#119,#120);
#122=SHAPE_REPRESENTATION('SR1',(#121,#687),#28);
#123=PRODUCT_DEFINITION_SHAPE('PDS1','Test Part',#93);
#124=SHAPE_DEFINITION_REPRESENTATION(#123,#122);
#129=(GEOMETRIC_REPRESENTATION_CONTEXT(3)GLOBAL_UNCERTAINTY_ASSIGNED_CONTEXT((#26))GLOBAL_UNIT_ASSIGNED_CONTEXT((#16,#20,#24))REPRESENTATION_CONTEXT('Component','Component'));
#130=PRODUCT('252012','252012',' ',(#31));
#131=PRODUCT_DEFINITION_FORMATION_WITH_SPECIFIED_SOURCE('None','None',#130,.BOUGHT.);
#132=PRODUCT_DEFINITION('None','None',#131,#92);
#133=SHAPE_REPRESENTATION('SR2',(#121),#129);
#134=PRODUCT_DEFINITION_SHAPE('PDS2','Test Part',#132);
#135=SHAPE_DEFINITION_REPRESENTATION(#134,#133);
#136=CARTESIAN_POINT('',(-1.25,-0.05975,1.1));
#137=DIRECTION('',(1.0,0.0,0.0));
#138=DIRECTION('',(0.0,0.0,-1.0));
#139=AXIS2_PLACEMENT_3D('',#136,#137,#138);
#140=PLANE('',#139);
#141=CARTESIAN_POINT('',(-1.25,1.0,-0.9));
#142=VERTEX_POINT('',#141);
#143=CARTESIAN_POINT('',(-1.25,0.0,-0.9));
#144=VERTEX_POINT('',#143);
#145=CARTESIAN_POINT('',(-1.25,1.0,-0.9));
#146=DIRECTION('',(0.0,-1.0,0.0));
#147=VECTOR('',#146,1.0);
#148=LINE('',#145,#147);
#149=EDGE_CURVE('',#142,#144,#148,.T.);
#150=ORIENTED_EDGE('',*,*,#149,.F.);
#151=CARTESIAN_POINT('',(-1.25,1.0,0.9));
#152=VERTEX_POINT('',#151);
#153=CARTESIAN_POINT('',(-1.25,1.0,0.9));
#154=DIRECTION('',(0.0,0.0,-1.0));
#155=VECTOR('',#154,1.800000000000001);
#156=LINE('',#153,#155);
#157=EDGE_CURVE('',#152,#142,#156,.T.);
#158=ORIENTED_EDGE('',*,*,#157,.F.);
#159=CARTESIAN_POINT('',(-1.25,0.0,0.9));
#160=VERTEX_POINT('',#159);
#161=CARTESIAN_POINT('',(-1.25,0.0,0.9));
#162=DIRECTION('',(0.0,1.0,0.0));
#163=VECTOR('',#162,1.0);
#164=LINE('',#161,#163);
#165=EDGE_CURVE('',#160,#152,#164,.T.);
#166=ORIENTED_EDGE('',*,*,#165,.F.);
#167=CARTESIAN_POINT('',(-1.25,0.0,1.0));
#168=VERTEX_POINT('',#167);
#169=CARTESIAN_POINT('',(-1.25,0.0,0.9));
#170=DIRECTION('',(0.0,0.0,1.0));
#171=VECTOR('',#170,0.1);
#172=LINE('',#169,#171);
#173=EDGE_CURVE('',#160,#168,#172,.T.);
#174=ORIENTED_EDGE('',*,*,#173,.T.);
#175=CARTESIAN_POINT('',(-1.25,1.195,1.0));
#176=VERTEX_POINT('',#175);
#177=CARTESIAN_POINT('',(-1.25,1.195,1.0));
#178=DIRECTION('',(0.0,-1.0,0.0));
#179=VECTOR('',#178,1.195);
#180=LINE('',#177,#179);
#181=EDGE_CURVE('',#176,#168,#180,.T.);
#182=ORIENTED_EDGE('',*,*,#181,.F.);
#183=CARTESIAN_POINT('',(-1.25,1.195,-1.0));
#184=VERTEX_POINT('',#183);
#185=CARTESIAN_POINT('',(-1.25,1.195,-1.0));
#186=DIRECTION('',(0.0,0.0,1.0));
#187=VECTOR('',#186,2.0);
#188=LINE('',#185,#187);
#189=EDGE_CURVE('',#184,#176,#188,.T.);
#190=ORIENTED_EDGE('',*,*,#189,.F.);
#191=CARTESIAN_POINT('',(-1.25,0.0,-1.0));
#192=VERTEX_POINT('',#191);
#193=CARTESIAN_POINT('',(-1.25,1.195,-1.0));
#194=DIRECTION('',(0.0,-1.0,0.0));
#195=VECTOR('',#194,1.195);
#196=LINE('',#193,#195);
#197=EDGE_CURVE('',#184,#192,#196,.T.);
#198=ORIENTED_EDGE('',*,*,#197,.T.);
#199=CARTESIAN_POINT('',(-1.25,0.0,-1.0));
#200=DIRECTION('',(0.0,0.0,1.0));
#201=VECTOR('',#200,0.1);
#202=LINE('',#199,#201);
#203=EDGE_CURVE('',#192,#144,#202,.T.);
#204=ORIENTED_EDGE('',*,*,#203,.T.);
#205=EDGE_LOOP('',(#150,#158,#166,#174,#182,#190,#198,#204));
#206=FACE_OUTER_BOUND('',#205,.T.);
#207=ADVANCED_FACE('',(#206),#140,.F.);
#208=CARTESIAN_POINT('',(1.25,-0.05975,-1.1));
#209=DIRECTION('',(-1.0,0.0,0.0));
#210=DIRECTION('',(0.0,0.0,1.0));
#211=AXIS2_PLACEMENT_3D('',#208,#209,#210);
#212=PLANE('',#211);
#213=CARTESIAN_POINT('',(1.25,1.0,0.893424916111439));
#214=VERTEX_POINT('',#213);
#215=CARTESIAN_POINT('',(1.25,0.0,0.893424916111439));
#216=VERTEX_POINT('',#215);
#217=CARTESIAN_POINT('',(1.25,1.0,0.893424916111439));
#218=DIRECTION('',(0.0,-1.0,0.0));
#219=VECTOR('',#218,1.0);
#220=LINE('',#217,#219);
#221=EDGE_CURVE('',#214,#216,#220,.T.);
#222=ORIENTED_EDGE('',*,*,#221,.F.);
#223=CARTESIAN_POINT('',(1.25,1.0,-0.9));
#224=VERTEX_POINT('',#223);
#225=CARTESIAN_POINT('',(1.25,1.0,-0.9));
#226=DIRECTION('',(0.0,0.0,1.0));
#227=VECTOR('',#226,1.79342491611144);
#228=LINE('',#225,#227);
#229=EDGE_CURVE('',#224,#214,#228,.T.);
#230=ORIENTED_EDGE('',*,*,#229,.F.);
#231=CARTESIAN_POINT('',(1.25,0.0,-0.9));
#232=VERTEX_POINT('',#231);
#233=CARTESIAN_POINT('',(1.25,0.0,-0.9));
#234=DIRECTION('',(0.0,1.0,0.0));
#235=VECTOR('',#234,1.0);
#236=LINE('',#233,#235);
#237=EDGE_CURVE('',#232,#224,#236,.T.);
#238=ORIENTED_EDGE('',*,*,#237,.F.);
#239=CARTESIAN_POINT('',(1.25,0.0,-1.0));
#240=VERTEX_POINT('',#239);
#241=CARTESIAN_POINT('',(1.25,0.0,-0.9));
#242=DIRECTION('',(0.0,0.0,-1.0));
#243=VECTOR('',#242,0.1);
#244=LINE('',#241,#243);
#245=EDGE_CURVE('',#232,#240,#244,.T.);
#246=ORIENTED_EDGE('',*,*,#245,.T.);
#247=CARTESIAN_POINT('',(1.25,1.195,-1.0));
#248=VERTEX_POINT('',#247);
#249=CARTESIAN_POINT('',(1.25,1.195,-1.0));
#250=DIRECTION('',(0.0,-1.0,0.0));
#251=VECTOR('',#250,1.195);
#252=LINE('',#249,#251);
#253=EDGE_CURVE('',#248,#240,#252,.T.);
#254=ORIENTED_EDGE('',*,*,#253,.F.);
#255=CARTESIAN_POINT('',(1.25,1.195,1.0));
#256=VERTEX_POINT('',#255);
#257=CARTESIAN_POINT('',(1.25,1.195,1.0));
#258=DIRECTION('',(0.0,0.0,-1.0));
#259=VECTOR('',#258,2.0);
#260=LINE('',#257,#259);
#261=EDGE_CURVE('',#256,#248,#260,.T.);
#262=ORIENTED_EDGE('',*,*,#261,.F.);
#263=CARTESIAN_POINT('',(1.25,0.0,1.0));
#264=VERTEX_POINT('',#263);
#265=CARTESIAN_POINT('',(1.25,1.195,1.0));
#266=DIRECTION('',(0.0,-1.0,0.0));
#267=VECTOR('',#266,1.195);
#268=LINE('',#265,#267);
#269=EDGE_CURVE('',#256,#264,#268,.T.);
#270=ORIENTED_EDGE('',*,*,#269,.T.);
#271=CARTESIAN_POINT('',(1.25,0.0,1.0));
#272=DIRECTION('',(0.0,0.0,-1.0));
#273=VECTOR('',#272,0.106575083888561);
#274=LINE('',#271,#273);
#275=EDGE_CURVE('',#264,#216,#274,.T.);
#276=ORIENTED_EDGE('',*,*,#275,.T.);
#277=EDGE_LOOP('',(#222,#230,#238,#246,#254,#262,#270,#276));
#278=FACE_OUTER_BOUND('',#277,.T.);
#279=ADVANCED_FACE('',(#278),#212,.F.);
#280=CARTESIAN_POINT('',(-1.375,0.0,1.1));
#281=DIRECTION('',(0.0,-1.0,0.0));
#282=DIRECTION('',(0.0,0.0,-1.0));
#283=AXIS2_PLACEMENT_3D('',#280,#281,#282);
#284=PLANE('',#283);
#285=CARTESIAN_POINT('',(-0.65,0.0,-0.9));
#286=VERTEX_POINT('',#285);
#287=CARTESIAN_POINT('',(-0.65,0.0,-0.9));
#288=DIRECTION('',(-1.0,0.0,0.0));
#289=VECTOR('',#288,0.6);
#290=LINE('',#287,#289);
#291=EDGE_CURVE('',#286,#144,#290,.T.);
#292=ORIENTED_EDGE('',*,*,#291,.T.);
#293=ORIENTED_EDGE('',*,*,#203,.F.);
#294=CARTESIAN_POINT('',(1.25,0.0,-1.0));
#295=DIRECTION('',(-1.0,0.0,0.0));
#296=VECTOR('',#295,2.5);
#297=LINE('',#294,#296);
#298=EDGE_CURVE('',#240,#192,#297,.T.);
#299=ORIENTED_EDGE('',*,*,#298,.F.);
#300=ORIENTED_EDGE('',*,*,#245,.F.);
#301=CARTESIAN_POINT('',(0.649467890263125,0.0,-0.9));
#302=VERTEX_POINT('',#301);
#303=CARTESIAN_POINT('',(1.25,0.0,-0.9));
#304=DIRECTION('',(-1.0,0.0,0.0));
#305=VECTOR('',#304,0.600532109736875);
#306=LINE('',#303,#305);
#307=EDGE_CURVE('',#232,#302,#306,.T.);
#308=ORIENTED_EDGE('',*,*,#307,.T.);
#309=CARTESIAN_POINT('',(0.649467890263125,0.0,0.893424916111439));
#310=VERTEX_POINT('',#309);
#311=CARTESIAN_POINT('',(0.649467890263125,0.0,0.893424916111439));
#312=DIRECTION('',(0.0,0.0,-1.0));
#313=VECTOR('',#312,1.79342491611144);
#314=LINE('',#311,#313);
#315=EDGE_CURVE('',#310,#302,#314,.T.);
#316=ORIENTED_EDGE('',*,*,#315,.F.);
#317=CARTESIAN_POINT('',(1.25,0.0,0.893424916111439));
#318=DIRECTION('',(-1.0,0.0,0.0));
#319=VECTOR('',#318,0.600532109736875);
#320=LINE('',#317,#319);
#321=EDGE_CURVE('',#216,#310,#320,.T.);
#322=ORIENTED_EDGE('',*,*,#321,.F.);
#323=ORIENTED_EDGE('',*,*,#275,.F.);
#324=CARTESIAN_POINT('',(-1.25,0.0,1.0));
#325=DIRECTION('',(1.0,0.0,0.0));
#326=VECTOR('',#325,2.5);
#327=LINE('',#324,#326);
#328=EDGE_CURVE('',#168,#264,#327,.T.);
#329=ORIENTED_EDGE('',*,*,#328,.F.);
#330=ORIENTED_EDGE('',*,*,#173,.F.);
#331=CARTESIAN_POINT('',(-0.65,0.0,0.9));
#332=VERTEX_POINT('',#331);
#333=CARTESIAN_POINT('',(-0.65,0.0,0.9));
#334=DIRECTION('',(-1.0,0.0,0.0));
#335=VECTOR('',#334,0.6);
#336=LINE('',#333,#335);
#337=EDGE_CURVE('',#332,#160,#336,.T.);
#338=ORIENTED_EDGE('',*,*,#337,.F.);
#339=CARTESIAN_POINT('',(-0.65,0.0,0.9));
#340=DIRECTION('',(0.0,0.0,-1.0));
#341=VECTOR('',#340,1.800000000000001);
#342=LINE('',#339,#341);
#343=EDGE_CURVE('',#332,#286,#342,.T.);
#344=ORIENTED_EDGE('',*,*,#343,.T.);
#345=EDGE_LOOP('',(#292,#293,#299,#300,#308,#316,#322,#323,#329,#330,#338,#344));
#346=FACE_OUTER_BOUND('',#345,.T.);
#347=ADVANCED_FACE('',(#346),#284,.T.);
#348=CARTESIAN_POINT('',(-1.375,-0.05975,-1.0));
#349=DIRECTION('',(0.0,0.0,1.0));
#350=DIRECTION('',(1.0,0.0,0.0));
#351=AXIS2_PLACEMENT_3D('',#348,#349,#350);
#352=PLANE('',#351);
#353=ORIENTED_EDGE('',*,*,#298,.T.);
#354=ORIENTED_EDGE('',*,*,#197,.F.);
#355=CARTESIAN_POINT('',(1.25,1.195,-1.0));
#356=DIRECTION('',(-1.0,0.0,0.0));
#357=VECTOR('',#356,2.5);
#358=LINE('',#355,#357);
#359=EDGE_CURVE('',#248,#184,#358,.T.);
#360=ORIENTED_EDGE('',*,*,#359,.F.);
#361=ORIENTED_EDGE('',*,*,#253,.T.);
#362=EDGE_LOOP('',(#353,#354,#360,#361));
#363=FACE_OUTER_BOUND('',#362,.T.);
#364=ADVANCED_FACE('',(#363),#352,.F.);
#365=CARTESIAN_POINT('',(1.375,-0.05975,1.0));
#366=DIRECTION('',(0.0,0.0,-1.0));
#367=DIRECTION('',(-1.0,0.0,0.0));
#368=AXIS2_PLACEMENT_3D('',#365,#366,#367);
#369=PLANE('',#368);
#370=ORIENTED_EDGE('',*,*,#328,.T.);
#371=ORIENTED_EDGE('',*,*,#269,.F.);
#372=CARTESIAN_POINT('',(-1.25,1.195,1.0));
#373=DIRECTION('',(1.0,0.0,0.0));
#374=VECTOR('',#373,2.5);
#375=LINE('',#372,#374);
#376=EDGE_CURVE('',#176,#256,#375,.T.);
#377=ORIENTED_EDGE('',*,*,#376,.F.);
#378=ORIENTED_EDGE('',*,*,#181,.T.);
#379=EDGE_LOOP('',(#370,#371,#377,#378));
#380=FACE_OUTER_BOUND('',#379,.T.);
#381=ADVANCED_FACE('',(#380),#369,.F.);
#382=CARTESIAN_POINT('',(-1.375,1.195,1.1));
#383=DIRECTION('',(0.0,-1.0,0.0));
#384=DIRECTION('',(0.0,0.0,-1.0));
#385=AXIS2_PLACEMENT_3D('',#382,#383,#384);
#386=PLANE('',#385);
#387=ORIENTED_EDGE('',*,*,#261,.T.);
#388=ORIENTED_EDGE('',*,*,#359,.T.);
#389=ORIENTED_EDGE('',*,*,#189,.T.);
#390=ORIENTED_EDGE('',*,*,#376,.T.);
#391=EDGE_LOOP('',(#387,#388,#389,#390));
#392=FACE_OUTER_BOUND('',#391,.T.);
#393=ADVANCED_FACE('',(#392),#386,.F.);
#394=CARTESIAN_POINT('',(1.301026605486844,-0.071,-0.9));
#395=DIRECTION('',(0.0,0.0,-1.0));
#396=DIRECTION('',(-1.0,0.0,0.0));
#397=AXIS2_PLACEMENT_3D('',#394,#395,#396);
#398=PLANE('',#397);
#399=ORIENTED_EDGE('',*,*,#307,.F.);
#400=ORIENTED_EDGE('',*,*,#237,.T.);
#401=CARTESIAN_POINT('',(1.27,1.0,-0.9));
#402=VERTEX_POINT('',#401);
#403=CARTESIAN_POINT('',(1.27,1.0,-0.9));
#404=DIRECTION('',(-1.0,0.0,0.0));
#405=VECTOR('',#404,0.02);
#406=LINE('',#403,#405);
#407=EDGE_CURVE('',#402,#224,#406,.T.);
#408=ORIENTED_EDGE('',*,*,#407,.F.);
#409=CARTESIAN_POINT('',(1.27,-0.02,-0.9));
#410=VERTEX_POINT('',#409);
#411=CARTESIAN_POINT('',(1.27,-0.02,-0.9));
#412=DIRECTION('',(0.0,1.0,0.0));
#413=VECTOR('',#412,1.02);
#414=LINE('',#411,#413);
#415=EDGE_CURVE('',#410,#402,#414,.T.);
#416=ORIENTED_EDGE('',*,*,#415,.F.);
#417=CARTESIAN_POINT('',(0.649467890263125,-0.02,-0.9));
#418=VERTEX_POINT('',#417);
#419=CARTESIAN_POINT('',(1.27,-0.02,-0.9));
#420=DIRECTION('',(-1.0,0.0,0.0));
#421=VECTOR('',#420,0.620532109736875);
#422=LINE('',#419,#421);
#423=EDGE_CURVE('',#410,#418,#422,.T.);
#424=ORIENTED_EDGE('',*,*,#423,.T.);
#425=CARTESIAN_POINT('',(0.649467890263125,-0.02,-0.9));
#426=DIRECTION('',(0.0,1.0,0.0));
#427=VECTOR('',#426,0.02);
#428=LINE('',#425,#427);
#429=EDGE_CURVE('',#418,#302,#428,.T.);
#430=ORIENTED_EDGE('',*,*,#429,.T.);
#431=EDGE_LOOP('',(#399,#400,#408,#416,#424,#430));
#432=FACE_OUTER_BOUND('',#431,.T.);
#433=ADVANCED_FACE('',(#432),#398,.T.);
#434=CARTESIAN_POINT('',(1.301026605486844,-0.071,0.893424916111439));
#435=DIRECTION('',(0.0,0.0,-1.0));
#436=DIRECTION('',(-1.0,0.0,0.0));
#437=AXIS2_PLACEMENT_3D('',#434,#435,#436);
#438=PLANE('',#437);
#439=ORIENTED_EDGE('',*,*,#321,.T.);
#440=CARTESIAN_POINT('',(0.649467890263125,-0.02,0.893424916111439));
#441=VERTEX_POINT('',#440);
#442=CARTESIAN_POINT('',(0.649467890263125,-0.02,0.893424916111439));
#443=DIRECTION('',(0.0,1.0,0.0));
#444=VECTOR('',#443,0.02);
#445=LINE('',#442,#444);
#446=EDGE_CURVE('',#441,#310,#445,.T.);
#447=ORIENTED_EDGE('',*,*,#446,.F.);
#448=CARTESIAN_POINT('',(1.27,-0.02,0.893424916111439));
#449=VERTEX_POINT('',#448);
#450=CARTESIAN_POINT('',(1.27,-0.02,0.893424916111439));
#451=DIRECTION('',(-1.0,0.0,0.0));
#452=VECTOR('',#451,0.620532109736875);
#453=LINE('',#450,#452);
#454=EDGE_CURVE('',#449,#441,#453,.T.);
#455=ORIENTED_EDGE('',*,*,#454,.F.);
#456=CARTESIAN_POINT('',(1.27,1.0,0.893424916111439));
#457=VERTEX_POINT('',#456);
#458=CARTESIAN_POINT('',(1.27,1.0,0.893424916111439));
#459=DIRECTION('',(0.0,-1.0,0.0));
#460=VECTOR('',#459,1.02);
#461=LINE('',#458,#460);
#462=EDGE_CURVE('',#457,#449,#461,.T.);
#463=ORIENTED_EDGE('',*,*,#462,.F.);
#464=CARTESIAN_POINT('',(1.27,1.0,0.893424916111439));
#465=DIRECTION('',(-1.0,0.0,0.0));
#466=VECTOR('',#465,0.02);
#467=LINE('',#464,#466);
#468=EDGE_CURVE('',#457,#214,#467,.T.);
#469=ORIENTED_EDGE('',*,*,#468,.T.);
#470=ORIENTED_EDGE('',*,*,#221,.T.);
#471=EDGE_LOOP('',(#439,#447,#455,#463,#469,#470));
#472=FACE_OUTER_BOUND('',#471,.T.);
#473=ADVANCED_FACE('',(#472),#438,.F.);
#474=CARTESIAN_POINT('',(0.649467890263125,-0.021,0.983096161917011));
#475=DIRECTION('',(1.0,0.0,0.0));
#476=DIRECTION('',(0.0,0.0,-1.0));
#477=AXIS2_PLACEMENT_3D('',#474,#475,#476);
#478=PLANE('',#477);
#479=ORIENTED_EDGE('',*,*,#315,.T.);
#480=ORIENTED_EDGE('',*,*,#429,.F.);
#481=CARTESIAN_POINT('',(0.649467890263125,-0.02,0.893424916111439));
#482=DIRECTION('',(0.0,0.0,-1.0));
#483=VECTOR('',#482,1.79342491611144);
#484=LINE('',#481,#483);
#485=EDGE_CURVE('',#441,#418,#484,.T.);
#486=ORIENTED_EDGE('',*,*,#485,.F.);
#487=ORIENTED_EDGE('',*,*,#446,.T.);
#488=EDGE_LOOP('',(#479,#480,#486,#487));
#489=FACE_OUTER_BOUND('',#488,.T.);
#490=ADVANCED_FACE('',(#489),#478,.F.);
#491=CARTESIAN_POINT('',(0.618441284776281,-0.02,0.983096161917011));
#492=DIRECTION('',(0.0,-1.0,0.0));
#493=DIRECTION('',(0.0,0.0,-1.0));
#494=AXIS2_PLACEMENT_3D('',#491,#492,#493);
#495=PLANE('',#494);
#496=ORIENTED_EDGE('',*,*,#423,.F.);
#497=CARTESIAN_POINT('',(1.27,-0.02,0.893424916111439));
#498=DIRECTION('',(0.0,0.0,-1.0));
#499=VECTOR('',#498,1.79342491611144);
#500=LINE('',#497,#499);
#501=EDGE_CURVE('',#449,#410,#500,.T.);
#502=ORIENTED_EDGE('',*,*,#501,.F.);
#503=ORIENTED_EDGE('',*,*,#454,.T.);
#504=ORIENTED_EDGE('',*,*,#485,.T.);
#505=EDGE_LOOP('',(#496,#502,#503,#504));
#506=FACE_OUTER_BOUND('',#505,.T.);
#507=ADVANCED_FACE('',(#506),#495,.T.);
#508=CARTESIAN_POINT('',(-0.619,-0.071,-0.9));
#509=DIRECTION('',(0.0,0.0,-1.0));
#510=DIRECTION('',(-1.0,0.0,0.0));
#511=AXIS2_PLACEMENT_3D('',#508,#509,#510);
#512=PLANE('',#511);
#513=ORIENTED_EDGE('',*,*,#291,.F.);
#514=CARTESIAN_POINT('',(-0.65,-0.02,-0.9));
#515=VERTEX_POINT('',#514);
#516=CARTESIAN_POINT('',(-0.65,-0.02,-0.9));
#517=DIRECTION('',(0.0,1.0,0.0));
#518=VECTOR('',#517,0.02);
#519=LINE('',#516,#518);
#520=EDGE_CURVE('',#515,#286,#519,.T.);
#521=ORIENTED_EDGE('',*,*,#520,.F.);
#522=CARTESIAN_POINT('',(-1.27,-0.02,-0.9));
#523=VERTEX_POINT('',#522);
#524=CARTESIAN_POINT('',(-0.65,-0.02,-0.9));
#525=DIRECTION('',(-1.0,0.0,0.0));
#526=VECTOR('',#525,0.62);
#527=LINE('',#524,#526);
#528=EDGE_CURVE('',#515,#523,#527,.T.);
#529=ORIENTED_EDGE('',*,*,#528,.T.);
#530=CARTESIAN_POINT('',(-1.27,1.0,-0.9));
#531=VERTEX_POINT('',#530);
#532=CARTESIAN_POINT('',(-1.27,1.0,-0.9));
#533=DIRECTION('',(0.0,-1.0,0.0));
#534=VECTOR('',#533,1.02);
#535=LINE('',#532,#534);
#536=EDGE_CURVE('',#531,#523,#535,.T.);
#537=ORIENTED_EDGE('',*,*,#536,.F.);
#538=CARTESIAN_POINT('',(-1.27,1.0,-0.9));
#539=DIRECTION('',(1.0,0.0,0.0));
#540=VECTOR('',#539,0.02);
#541=LINE('',#538,#540);
#542=EDGE_CURVE('',#531,#142,#541,.T.);
#543=ORIENTED_EDGE('',*,*,#542,.T.);
#544=ORIENTED_EDGE('',*,*,#149,.T.);
#545=EDGE_LOOP('',(#513,#521,#529,#537,#543,#544));
#546=FACE_OUTER_BOUND('',#545,.T.);
#547=ADVANCED_FACE('',(#546),#512,.T.);
#548=CARTESIAN_POINT('',(-0.65,-0.021,0.99));
#549=DIRECTION('',(1.0,0.0,0.0));
#550=DIRECTION('',(0.0,0.0,-1.0));
#551=AXIS2_PLACEMENT_3D('',#548,#549,#550);
#552=PLANE('',#551);
#553=ORIENTED_EDGE('',*,*,#343,.F.);
#554=CARTESIAN_POINT('',(-0.65,-0.02,0.9));
#555=VERTEX_POINT('',#554);
#556=CARTESIAN_POINT('',(-0.65,-0.02,0.9));
#557=DIRECTION('',(0.0,1.0,0.0));
#558=VECTOR('',#557,0.02);
#559=LINE('',#556,#558);
#560=EDGE_CURVE('',#555,#332,#559,.T.);
#561=ORIENTED_EDGE('',*,*,#560,.F.);
#562=CARTESIAN_POINT('',(-0.65,-0.02,0.9));
#563=DIRECTION('',(0.0,0.0,-1.0));
#564=VECTOR('',#563,1.800000000000001);
#565=LINE('',#562,#564);
#566=EDGE_CURVE('',#555,#515,#565,.T.);
#567=ORIENTED_EDGE('',*,*,#566,.T.);
#568=ORIENTED_EDGE('',*,*,#520,.T.);
#569=EDGE_LOOP('',(#553,#561,#567,#568));
#570=FACE_OUTER_BOUND('',#569,.T.);
#571=ADVANCED_FACE('',(#570),#552,.T.);
#572=CARTESIAN_POINT('',(-0.619,-0.071,0.9));
#573=DIRECTION('',(0.0,0.0,-1.0));
#574=DIRECTION('',(-1.0,0.0,0.0));
#575=AXIS2_PLACEMENT_3D('',#572,#573,#574);
#576=PLANE('',#575);
#577=ORIENTED_EDGE('',*,*,#337,.T.);
#578=ORIENTED_EDGE('',*,*,#165,.T.);
#579=CARTESIAN_POINT('',(-1.27,1.0,0.9));
#580=VERTEX_POINT('',#579);
#581=CARTESIAN_POINT('',(-1.27,1.0,0.9));
#582=DIRECTION('',(1.0,0.0,0.0));
#583=VECTOR('',#582,0.02);
#584=LINE('',#581,#583);
#585=EDGE_CURVE('',#580,#152,#584,.T.);
#586=ORIENTED_EDGE('',*,*,#585,.F.);
#587=CARTESIAN_POINT('',(-1.27,-0.02,0.9));
#588=VERTEX_POINT('',#587);
#589=CARTESIAN_POINT('',(-1.27,-0.02,0.9));
#590=DIRECTION('',(0.0,1.0,0.0));
#591=VECTOR('',#590,1.02);
#592=LINE('',#589,#591);
#593=EDGE_CURVE('',#588,#580,#592,.T.);
#594=ORIENTED_EDGE('',*,*,#593,.F.);
#595=CARTESIAN_POINT('',(-0.65,-0.02,0.9));
#596=DIRECTION('',(-1.0,0.0,0.0));
#597=VECTOR('',#596,0.62);
#598=LINE('',#595,#597);
#599=EDGE_CURVE('',#555,#588,#598,.T.);
#600=ORIENTED_EDGE('',*,*,#599,.F.);
#601=ORIENTED_EDGE('',*,*,#560,.T.);
#602=EDGE_LOOP('',(#577,#578,#586,#594,#600,#601));
#603=FACE_OUTER_BOUND('',#602,.T.);
#604=ADVANCED_FACE('',(#603),#576,.F.);
#605=CARTESIAN_POINT('',(-1.301,-0.02,0.99));
#606=DIRECTION('',(0.0,-1.0,0.0));
#607=DIRECTION('',(0.0,0.0,-1.0));
#608=AXIS2_PLACEMENT_3D('',#605,#606,#607);
#609=PLANE('',#608);
#610=ORIENTED_EDGE('',*,*,#528,.F.);
#611=ORIENTED_EDGE('',*,*,#566,.F.);
#612=ORIENTED_EDGE('',*,*,#599,.T.);
#613=CARTESIAN_POINT('',(-1.27,-0.02,-0.9));
#614=DIRECTION('',(0.0,0.0,1.0));
#615=VECTOR('',#614,1.800000000000001);
#616=LINE('',#613,#615);
#617=EDGE_CURVE('',#523,#588,#616,.T.);
#618=ORIENTED_EDGE('',*,*,#617,.F.);
#619=EDGE_LOOP('',(#610,#611,#612,#618));
#620=FACE_OUTER_BOUND('',#619,.T.);
#621=ADVANCED_FACE('',(#620),#609,.T.);
#622=CARTESIAN_POINT('',(1.249,1.0,0.983096161917011));
#623=DIRECTION('',(0.0,-1.0,0.0));
#624=DIRECTION('',(0.0,0.0,-1.0));
#625=AXIS2_PLACEMENT_3D('',#622,#623,#624);
#626=PLANE('',#625);
#627=ORIENTED_EDGE('',*,*,#229,.T.);
#628=ORIENTED_EDGE('',*,*,#468,.F.);
#629=CARTESIAN_POINT('',(1.27,1.0,-0.9));
#630=DIRECTION('',(0.0,0.0,1.0));
#631=VECTOR('',#630,1.79342491611144);
#632=LINE('',#629,#631);
#633=EDGE_CURVE('',#402,#457,#632,.T.);
#634=ORIENTED_EDGE('',*,*,#633,.F.);
#635=ORIENTED_EDGE('',*,*,#407,.T.);
#636=EDGE_LOOP('',(#627,#628,#634,#635));
#637=FACE_OUTER_BOUND('',#636,.T.);
#638=ADVANCED_FACE('',(#637),#626,.F.);
#639=CARTESIAN_POINT('',(1.27,-0.071,-0.989671245805572));
#640=DIRECTION('',(-1.0,0.0,0.0));
#641=DIRECTION('',(0.0,0.0,1.0));
#642=AXIS2_PLACEMENT_3D('',#639,#640,#641);
#643=PLANE('',#642);
#644=ORIENTED_EDGE('',*,*,#462,.T.);
#645=ORIENTED_EDGE('',*,*,#501,.T.);
#646=ORIENTED_EDGE('',*,*,#415,.T.);
#647=ORIENTED_EDGE('',*,*,#633,.T.);
#648=EDGE_LOOP('',(#644,#645,#646,#647));
#649=FACE_OUTER_BOUND('',#648,.T.);
#650=ADVANCED_FACE('',(#649),#643,.F.);
#651=CARTESIAN_POINT('',(-1.271,1.0,0.99));
#652=DIRECTION('',(0.0,-1.0,0.0));
#653=DIRECTION('',(0.0,0.0,-1.0));
#654=AXIS2_PLACEMENT_3D('',#651,#652,#653);
#655=PLANE('',#654);
#656=ORIENTED_EDGE('',*,*,#157,.T.);
#657=ORIENTED_EDGE('',*,*,#542,.F.);
#658=CARTESIAN_POINT('',(-1.27,1.0,0.9));
#659=DIRECTION('',(0.0,0.0,-1.0));
#660=VECTOR('',#659,1.800000000000001);
#661=LINE('',#658,#660);
#662=EDGE_CURVE('',#580,#531,#661,.T.);
#663=ORIENTED_EDGE('',*,*,#662,.F.);
#664=ORIENTED_EDGE('',*,*,#585,.T.);
#665=EDGE_LOOP('',(#656,#657,#663,#664));
#666=FACE_OUTER_BOUND('',#665,.T.);
#667=ADVANCED_FACE('',(#666),#655,.F.);
#668=CARTESIAN_POINT('',(-1.27,-0.071,0.99));
#669=DIRECTION('',(1.0,0.0,0.0));
#670=DIRECTION('',(0.0,0.0,-1.0));
#671=AXIS2_PLACEMENT_3D('',#668,#669,#670);
#672=PLANE('',#671);
#673=ORIENTED_EDGE('',*,*,#536,.T.);
#674=ORIENTED_EDGE('',*,*,#617,.T.);
#675=ORIENTED_EDGE('',*,*,#593,.T.);
#676=ORIENTED_EDGE('',*,*,#662,.T.);
#677=EDGE_LOOP('',(#673,#674,#675,#676));
#678=FACE_OUTER_BOUND('',#677,.T.);
#679=ADVANCED_FACE('',(#678),#672,.F.);
#680=CLOSED_SHELL('',(#207,#279,#347,#364,#381,#393,#433,#473,#490,#507,#547,#571,#604,#621,#638,#650,#667,#679));
#681=MANIFOLD_SOLID_BREP('2E5',#680);
#682=ADVANCED_BREP_SHAPE_REPRESENTATION('ABSR1',(#681),#129);
#683=SHAPE_REPRESENTATION_RELATIONSHIP('SRRPL1','',#682,#133);
#684=CARTESIAN_POINT('NONE',(0.0,0.0,0.0));
#685=DIRECTION('NONE',(0.0,0.0,1.0));
#686=DIRECTION('NONE',(1.0,0.0,0.0));
#687=AXIS2_PLACEMENT_3D('NONE',#684,#685,#686);
#688=ITEM_DEFINED_TRANSFORMATION('IDT1','',#121,#687);
#692=(REPRESENTATION_RELATIONSHIP(' ',' ',#133,#122)REPRESENTATION_RELATIONSHIP_WITH_TRANSFORMATION(#688)SHAPE_REPRESENTATION_RELATIONSHIP());
#693=NEXT_ASSEMBLY_USAGE_OCCURRENCE('NAUO1',' ',' ',#93,#132,$);
#694=PRODUCT_DEFINITION_SHAPE('PDS_NAUO1',' ',#693);
#695=CONTEXT_DEPENDENT_SHAPE_REPRESENTATION(#692,#694);
ENDSEC;
END-ISO-10303-21;
