ISO-10303-21;
HEADER;
/* Generated by software containing ST-Developer
 * from STEP Tools, Inc. (www.steptools.com) 
 */

FILE_DESCRIPTION(
/* description */ (''),
/* implementation_level */ '2;1');

FILE_NAME(
/* name */ 'D:\\Fanny''s data\\Marcom\\SF\\SF-1206FP\\sf-1206fp_series
-1.stp',
/* time_stamp */ '2017-06-13T15:29:12+08:00',
/* author */ ('Fannyl'),
/* organization */ ('Bourns, Inc.'),
/* preprocessor_version */ 'ST-DEVELOPER v16.5',
/* originating_system */ 'Autodesk Inventor 2017',
/* authorisation */ '');

FILE_SCHEMA (('AUTOMOTIVE_DESIGN { 1 0 10303 214 3 1 1 }'));
ENDSEC;

DATA;
#10=MECHANICAL_DESIGN_GEOMETRIC_PRESENTATION_REPRESENTATION('',(#13),#581);
#11=SHAPE_REPRESENTATION_RELATIONSHIP('SRR','None',#590,#12);
#12=ADVANCED_BREP_SHAPE_REPRESENTATION('',(#14),#580);
#13=STYLED_ITEM('',(#599),#14);
#14=MANIFOLD_SOLID_BREP('\X2\5BE69AD4\X0\1',#351);
#15=CYLINDRICAL_SURFACE('',#366,0.02);
#16=CYLINDRICAL_SURFACE('',#377,0.02);
#17=CYLINDRICAL_SURFACE('',#379,0.02);
#18=CYLINDRICAL_SURFACE('',#383,0.02);
#19=CIRCLE('',#362,0.02);
#20=CIRCLE('',#363,0.02);
#21=CIRCLE('',#364,0.02);
#22=CIRCLE('',#365,0.02);
#23=CIRCLE('',#367,0.02);
#24=CIRCLE('',#369,0.02);
#25=CIRCLE('',#370,0.02);
#26=CIRCLE('',#371,0.02);
#27=FACE_OUTER_BOUND('',#45,.T.);
#28=FACE_OUTER_BOUND('',#46,.T.);
#29=FACE_OUTER_BOUND('',#47,.T.);
#30=FACE_OUTER_BOUND('',#48,.T.);
#31=FACE_OUTER_BOUND('',#49,.T.);
#32=FACE_OUTER_BOUND('',#50,.T.);
#33=FACE_OUTER_BOUND('',#51,.T.);
#34=FACE_OUTER_BOUND('',#52,.T.);
#35=FACE_OUTER_BOUND('',#53,.T.);
#36=FACE_OUTER_BOUND('',#54,.T.);
#37=FACE_OUTER_BOUND('',#55,.T.);
#38=FACE_OUTER_BOUND('',#56,.T.);
#39=FACE_OUTER_BOUND('',#57,.T.);
#40=FACE_OUTER_BOUND('',#58,.T.);
#41=FACE_OUTER_BOUND('',#59,.T.);
#42=FACE_OUTER_BOUND('',#60,.T.);
#43=FACE_OUTER_BOUND('',#61,.T.);
#44=FACE_OUTER_BOUND('',#62,.T.);
#45=EDGE_LOOP('',(#223,#224,#225,#226));
#46=EDGE_LOOP('',(#227,#228,#229,#230));
#47=EDGE_LOOP('',(#231,#232,#233,#234,#235,#236,#237,#238,#239,#240,#241,
#242,#243,#244,#245,#246));
#48=EDGE_LOOP('',(#247,#248,#249,#250));
#49=EDGE_LOOP('',(#251,#252,#253,#254,#255,#256,#257,#258,#259,#260,#261,
#262,#263,#264,#265,#266));
#50=EDGE_LOOP('',(#267,#268,#269,#270));
#51=EDGE_LOOP('',(#271,#272,#273,#274));
#52=EDGE_LOOP('',(#275,#276,#277,#278));
#53=EDGE_LOOP('',(#279,#280,#281,#282));
#54=EDGE_LOOP('',(#283,#284,#285,#286));
#55=EDGE_LOOP('',(#287,#288,#289,#290));
#56=EDGE_LOOP('',(#291,#292,#293,#294));
#57=EDGE_LOOP('',(#295,#296,#297,#298));
#58=EDGE_LOOP('',(#299,#300,#301,#302));
#59=EDGE_LOOP('',(#303,#304,#305,#306));
#60=EDGE_LOOP('',(#307,#308,#309,#310));
#61=EDGE_LOOP('',(#311,#312,#313,#314));
#62=EDGE_LOOP('',(#315,#316,#317,#318));
#63=LINE('',#483,#103);
#64=LINE('',#485,#104);
#65=LINE('',#487,#105);
#66=LINE('',#488,#106);
#67=LINE('',#491,#107);
#68=LINE('',#493,#108);
#69=LINE('',#494,#109);
#70=LINE('',#500,#110);
#71=LINE('',#502,#111);
#72=LINE('',#504,#112);
#73=LINE('',#506,#113);
#74=LINE('',#508,#114);
#75=LINE('',#512,#115);
#76=LINE('',#516,#116);
#77=LINE('',#517,#117);
#78=LINE('',#519,#118);
#79=LINE('',#522,#119);
#80=LINE('',#527,#120);
#81=LINE('',#528,#121);
#82=LINE('',#531,#122);
#83=LINE('',#534,#123);
#84=LINE('',#536,#124);
#85=LINE('',#538,#125);
#86=LINE('',#542,#126);
#87=LINE('',#546,#127);
#88=LINE('',#548,#128);
#89=LINE('',#550,#129);
#90=LINE('',#552,#130);
#91=LINE('',#553,#131);
#92=LINE('',#555,#132);
#93=LINE('',#557,#133);
#94=LINE('',#558,#134);
#95=LINE('',#560,#135);
#96=LINE('',#562,#136);
#97=LINE('',#565,#137);
#98=LINE('',#567,#138);
#99=LINE('',#569,#139);
#100=LINE('',#571,#140);
#101=LINE('',#573,#141);
#102=LINE('',#576,#142);
#103=VECTOR('',#389,1.55);
#104=VECTOR('',#390,2.1);
#105=VECTOR('',#391,1.55);
#106=VECTOR('',#392,2.1);
#107=VECTOR('',#395,0.025);
#108=VECTOR('',#396,1.55);
#109=VECTOR('',#397,0.025);
#110=VECTOR('',#402,0.48);
#111=VECTOR('',#403,0.005);
#112=VECTOR('',#404,2.1);
#113=VECTOR('',#405,0.005);
#114=VECTOR('',#406,0.48);
#115=VECTOR('',#409,0.56);
#116=VECTOR('',#412,0.48);
#117=VECTOR('',#413,0.025);
#118=VECTOR('',#414,0.48);
#119=VECTOR('',#417,0.56);
#120=VECTOR('',#422,1.55);
#121=VECTOR('',#423,1.55);
#122=VECTOR('',#426,0.56);
#123=VECTOR('',#429,0.48);
#124=VECTOR('',#430,0.025);
#125=VECTOR('',#431,0.48);
#126=VECTOR('',#434,0.56);
#127=VECTOR('',#437,0.48);
#128=VECTOR('',#438,0.005);
#129=VECTOR('',#439,2.1);
#130=VECTOR('',#440,0.005);
#131=VECTOR('',#441,0.48);
#132=VECTOR('',#444,1.55);
#133=VECTOR('',#447,1.55);
#134=VECTOR('',#448,1.55);
#135=VECTOR('',#451,1.55);
#136=VECTOR('',#454,1.55);
#137=VECTOR('',#459,1.55);
#138=VECTOR('',#462,1.55);
#139=VECTOR('',#465,1.55);
#140=VECTOR('',#468,1.55);
#141=VECTOR('',#471,1.55);
#142=VECTOR('',#476,1.55);
#143=VERTEX_POINT('',#481);
#144=VERTEX_POINT('',#482);
#145=VERTEX_POINT('',#484);
#146=VERTEX_POINT('',#486);
#147=VERTEX_POINT('',#490);
#148=VERTEX_POINT('',#492);
#149=VERTEX_POINT('',#496);
#150=VERTEX_POINT('',#497);
#151=VERTEX_POINT('',#499);
#152=VERTEX_POINT('',#501);
#153=VERTEX_POINT('',#503);
#154=VERTEX_POINT('',#505);
#155=VERTEX_POINT('',#507);
#156=VERTEX_POINT('',#509);
#157=VERTEX_POINT('',#511);
#158=VERTEX_POINT('',#513);
#159=VERTEX_POINT('',#515);
#160=VERTEX_POINT('',#518);
#161=VERTEX_POINT('',#520);
#162=VERTEX_POINT('',#524);
#163=VERTEX_POINT('',#525);
#164=VERTEX_POINT('',#530);
#165=VERTEX_POINT('',#532);
#166=VERTEX_POINT('',#535);
#167=VERTEX_POINT('',#537);
#168=VERTEX_POINT('',#539);
#169=VERTEX_POINT('',#541);
#170=VERTEX_POINT('',#543);
#171=VERTEX_POINT('',#545);
#172=VERTEX_POINT('',#547);
#173=VERTEX_POINT('',#549);
#174=VERTEX_POINT('',#551);
#175=EDGE_CURVE('',#143,#144,#63,.T.);
#176=EDGE_CURVE('',#145,#143,#64,.T.);
#177=EDGE_CURVE('',#145,#146,#65,.T.);
#178=EDGE_CURVE('',#144,#146,#66,.T.);
#179=EDGE_CURVE('',#147,#144,#67,.T.);
#180=EDGE_CURVE('',#147,#148,#68,.T.);
#181=EDGE_CURVE('',#148,#143,#69,.T.);
#182=EDGE_CURVE('',#149,#150,#19,.T.);
#183=EDGE_CURVE('',#151,#150,#70,.T.);
#184=EDGE_CURVE('',#151,#152,#71,.T.);
#185=EDGE_CURVE('',#153,#152,#72,.T.);
#186=EDGE_CURVE('',#154,#153,#73,.T.);
#187=EDGE_CURVE('',#155,#154,#74,.T.);
#188=EDGE_CURVE('',#155,#156,#20,.T.);
#189=EDGE_CURVE('',#156,#157,#75,.T.);
#190=EDGE_CURVE('',#157,#158,#21,.T.);
#191=EDGE_CURVE('',#158,#159,#76,.T.);
#192=EDGE_CURVE('',#159,#145,#77,.T.);
#193=EDGE_CURVE('',#148,#160,#78,.T.);
#194=EDGE_CURVE('',#160,#161,#22,.T.);
#195=EDGE_CURVE('',#161,#149,#79,.T.);
#196=EDGE_CURVE('',#162,#163,#23,.T.);
#197=EDGE_CURVE('',#150,#162,#80,.T.);
#198=EDGE_CURVE('',#149,#163,#81,.T.);
#199=EDGE_CURVE('',#164,#163,#82,.T.);
#200=EDGE_CURVE('',#164,#165,#24,.T.);
#201=EDGE_CURVE('',#165,#147,#83,.T.);
#202=EDGE_CURVE('',#166,#146,#84,.T.);
#203=EDGE_CURVE('',#166,#167,#85,.T.);
#204=EDGE_CURVE('',#167,#168,#25,.T.);
#205=EDGE_CURVE('',#168,#169,#86,.T.);
#206=EDGE_CURVE('',#169,#170,#26,.T.);
#207=EDGE_CURVE('',#171,#170,#87,.T.);
#208=EDGE_CURVE('',#171,#172,#88,.T.);
#209=EDGE_CURVE('',#173,#172,#89,.T.);
#210=EDGE_CURVE('',#174,#173,#90,.T.);
#211=EDGE_CURVE('',#162,#174,#91,.T.);
#212=EDGE_CURVE('',#151,#174,#92,.T.);
#213=EDGE_CURVE('',#170,#155,#93,.T.);
#214=EDGE_CURVE('',#154,#171,#94,.T.);
#215=EDGE_CURVE('',#152,#173,#95,.T.);
#216=EDGE_CURVE('',#172,#153,#96,.T.);
#217=EDGE_CURVE('',#169,#156,#97,.T.);
#218=EDGE_CURVE('',#157,#168,#98,.T.);
#219=EDGE_CURVE('',#158,#167,#99,.T.);
#220=EDGE_CURVE('',#159,#166,#100,.T.);
#221=EDGE_CURVE('',#165,#160,#101,.T.);
#222=EDGE_CURVE('',#164,#161,#102,.T.);
#223=ORIENTED_EDGE('',*,*,#175,.F.);
#224=ORIENTED_EDGE('',*,*,#176,.F.);
#225=ORIENTED_EDGE('',*,*,#177,.T.);
#226=ORIENTED_EDGE('',*,*,#178,.F.);
#227=ORIENTED_EDGE('',*,*,#175,.T.);
#228=ORIENTED_EDGE('',*,*,#179,.F.);
#229=ORIENTED_EDGE('',*,*,#180,.T.);
#230=ORIENTED_EDGE('',*,*,#181,.T.);
#231=ORIENTED_EDGE('',*,*,#182,.T.);
#232=ORIENTED_EDGE('',*,*,#183,.F.);
#233=ORIENTED_EDGE('',*,*,#184,.T.);
#234=ORIENTED_EDGE('',*,*,#185,.F.);
#235=ORIENTED_EDGE('',*,*,#186,.F.);
#236=ORIENTED_EDGE('',*,*,#187,.F.);
#237=ORIENTED_EDGE('',*,*,#188,.T.);
#238=ORIENTED_EDGE('',*,*,#189,.T.);
#239=ORIENTED_EDGE('',*,*,#190,.T.);
#240=ORIENTED_EDGE('',*,*,#191,.T.);
#241=ORIENTED_EDGE('',*,*,#192,.T.);
#242=ORIENTED_EDGE('',*,*,#176,.T.);
#243=ORIENTED_EDGE('',*,*,#181,.F.);
#244=ORIENTED_EDGE('',*,*,#193,.T.);
#245=ORIENTED_EDGE('',*,*,#194,.T.);
#246=ORIENTED_EDGE('',*,*,#195,.T.);
#247=ORIENTED_EDGE('',*,*,#196,.F.);
#248=ORIENTED_EDGE('',*,*,#197,.F.);
#249=ORIENTED_EDGE('',*,*,#182,.F.);
#250=ORIENTED_EDGE('',*,*,#198,.T.);
#251=ORIENTED_EDGE('',*,*,#196,.T.);
#252=ORIENTED_EDGE('',*,*,#199,.F.);
#253=ORIENTED_EDGE('',*,*,#200,.T.);
#254=ORIENTED_EDGE('',*,*,#201,.T.);
#255=ORIENTED_EDGE('',*,*,#179,.T.);
#256=ORIENTED_EDGE('',*,*,#178,.T.);
#257=ORIENTED_EDGE('',*,*,#202,.F.);
#258=ORIENTED_EDGE('',*,*,#203,.T.);
#259=ORIENTED_EDGE('',*,*,#204,.T.);
#260=ORIENTED_EDGE('',*,*,#205,.T.);
#261=ORIENTED_EDGE('',*,*,#206,.T.);
#262=ORIENTED_EDGE('',*,*,#207,.F.);
#263=ORIENTED_EDGE('',*,*,#208,.T.);
#264=ORIENTED_EDGE('',*,*,#209,.F.);
#265=ORIENTED_EDGE('',*,*,#210,.F.);
#266=ORIENTED_EDGE('',*,*,#211,.F.);
#267=ORIENTED_EDGE('',*,*,#197,.T.);
#268=ORIENTED_EDGE('',*,*,#211,.T.);
#269=ORIENTED_EDGE('',*,*,#212,.F.);
#270=ORIENTED_EDGE('',*,*,#183,.T.);
#271=ORIENTED_EDGE('',*,*,#213,.T.);
#272=ORIENTED_EDGE('',*,*,#187,.T.);
#273=ORIENTED_EDGE('',*,*,#214,.T.);
#274=ORIENTED_EDGE('',*,*,#207,.T.);
#275=ORIENTED_EDGE('',*,*,#184,.F.);
#276=ORIENTED_EDGE('',*,*,#212,.T.);
#277=ORIENTED_EDGE('',*,*,#210,.T.);
#278=ORIENTED_EDGE('',*,*,#215,.F.);
#279=ORIENTED_EDGE('',*,*,#216,.T.);
#280=ORIENTED_EDGE('',*,*,#185,.T.);
#281=ORIENTED_EDGE('',*,*,#215,.T.);
#282=ORIENTED_EDGE('',*,*,#209,.T.);
#283=ORIENTED_EDGE('',*,*,#208,.F.);
#284=ORIENTED_EDGE('',*,*,#214,.F.);
#285=ORIENTED_EDGE('',*,*,#186,.T.);
#286=ORIENTED_EDGE('',*,*,#216,.F.);
#287=ORIENTED_EDGE('',*,*,#188,.F.);
#288=ORIENTED_EDGE('',*,*,#213,.F.);
#289=ORIENTED_EDGE('',*,*,#206,.F.);
#290=ORIENTED_EDGE('',*,*,#217,.T.);
#291=ORIENTED_EDGE('',*,*,#217,.F.);
#292=ORIENTED_EDGE('',*,*,#205,.F.);
#293=ORIENTED_EDGE('',*,*,#218,.F.);
#294=ORIENTED_EDGE('',*,*,#189,.F.);
#295=ORIENTED_EDGE('',*,*,#204,.F.);
#296=ORIENTED_EDGE('',*,*,#219,.F.);
#297=ORIENTED_EDGE('',*,*,#190,.F.);
#298=ORIENTED_EDGE('',*,*,#218,.T.);
#299=ORIENTED_EDGE('',*,*,#219,.T.);
#300=ORIENTED_EDGE('',*,*,#203,.F.);
#301=ORIENTED_EDGE('',*,*,#220,.F.);
#302=ORIENTED_EDGE('',*,*,#191,.F.);
#303=ORIENTED_EDGE('',*,*,#221,.T.);
#304=ORIENTED_EDGE('',*,*,#193,.F.);
#305=ORIENTED_EDGE('',*,*,#180,.F.);
#306=ORIENTED_EDGE('',*,*,#201,.F.);
#307=ORIENTED_EDGE('',*,*,#177,.F.);
#308=ORIENTED_EDGE('',*,*,#192,.F.);
#309=ORIENTED_EDGE('',*,*,#220,.T.);
#310=ORIENTED_EDGE('',*,*,#202,.T.);
#311=ORIENTED_EDGE('',*,*,#194,.F.);
#312=ORIENTED_EDGE('',*,*,#221,.F.);
#313=ORIENTED_EDGE('',*,*,#200,.F.);
#314=ORIENTED_EDGE('',*,*,#222,.T.);
#315=ORIENTED_EDGE('',*,*,#198,.F.);
#316=ORIENTED_EDGE('',*,*,#195,.F.);
#317=ORIENTED_EDGE('',*,*,#222,.F.);
#318=ORIENTED_EDGE('',*,*,#199,.T.);
#319=PLANE('',#359);
#320=PLANE('',#360);
#321=PLANE('',#361);
#322=PLANE('',#368);
#323=PLANE('',#372);
#324=PLANE('',#373);
#325=PLANE('',#374);
#326=PLANE('',#375);
#327=PLANE('',#376);
#328=PLANE('',#378);
#329=PLANE('',#380);
#330=PLANE('',#381);
#331=PLANE('',#382);
#332=PLANE('',#384);
#333=ADVANCED_FACE('',(#27),#319,.F.);
#334=ADVANCED_FACE('',(#28),#320,.T.);
#335=ADVANCED_FACE('',(#29),#321,.T.);
#336=ADVANCED_FACE('',(#30),#15,.T.);
#337=ADVANCED_FACE('',(#31),#322,.T.);
#338=ADVANCED_FACE('',(#32),#323,.T.);
#339=ADVANCED_FACE('',(#33),#324,.T.);
#340=ADVANCED_FACE('',(#34),#325,.T.);
#341=ADVANCED_FACE('',(#35),#326,.T.);
#342=ADVANCED_FACE('',(#36),#327,.T.);
#343=ADVANCED_FACE('',(#37),#16,.T.);
#344=ADVANCED_FACE('',(#38),#328,.T.);
#345=ADVANCED_FACE('',(#39),#17,.T.);
#346=ADVANCED_FACE('',(#40),#329,.F.);
#347=ADVANCED_FACE('',(#41),#330,.F.);
#348=ADVANCED_FACE('',(#42),#331,.T.);
#349=ADVANCED_FACE('',(#43),#18,.T.);
#350=ADVANCED_FACE('',(#44),#332,.T.);
#351=CLOSED_SHELL('',(#333,#334,#335,#336,#337,#338,#339,#340,#341,#342,
#343,#344,#345,#346,#347,#348,#349,#350));
#352=DATE_TIME_ROLE('creation_date');
#353=APPLIED_DATE_AND_TIME_ASSIGNMENT(#354,#352,(#592));
#354=DATE_AND_TIME(#355,#356);
#355=CALENDAR_DATE(2017,13,6);
#356=LOCAL_TIME(15,26,11.,#357);
#357=COORDINATED_UNIVERSAL_TIME_OFFSET(0,0,.BEHIND.);
#358=AXIS2_PLACEMENT_3D('placement',#479,#385,#386);
#359=AXIS2_PLACEMENT_3D('',#480,#387,#388);
#360=AXIS2_PLACEMENT_3D('',#489,#393,#394);
#361=AXIS2_PLACEMENT_3D('',#495,#398,#399);
#362=AXIS2_PLACEMENT_3D('',#498,#400,#401);
#363=AXIS2_PLACEMENT_3D('',#510,#407,#408);
#364=AXIS2_PLACEMENT_3D('',#514,#410,#411);
#365=AXIS2_PLACEMENT_3D('',#521,#415,#416);
#366=AXIS2_PLACEMENT_3D('',#523,#418,#419);
#367=AXIS2_PLACEMENT_3D('',#526,#420,#421);
#368=AXIS2_PLACEMENT_3D('',#529,#424,#425);
#369=AXIS2_PLACEMENT_3D('',#533,#427,#428);
#370=AXIS2_PLACEMENT_3D('',#540,#432,#433);
#371=AXIS2_PLACEMENT_3D('',#544,#435,#436);
#372=AXIS2_PLACEMENT_3D('',#554,#442,#443);
#373=AXIS2_PLACEMENT_3D('',#556,#445,#446);
#374=AXIS2_PLACEMENT_3D('',#559,#449,#450);
#375=AXIS2_PLACEMENT_3D('',#561,#452,#453);
#376=AXIS2_PLACEMENT_3D('',#563,#455,#456);
#377=AXIS2_PLACEMENT_3D('',#564,#457,#458);
#378=AXIS2_PLACEMENT_3D('',#566,#460,#461);
#379=AXIS2_PLACEMENT_3D('',#568,#463,#464);
#380=AXIS2_PLACEMENT_3D('',#570,#466,#467);
#381=AXIS2_PLACEMENT_3D('',#572,#469,#470);
#382=AXIS2_PLACEMENT_3D('',#574,#472,#473);
#383=AXIS2_PLACEMENT_3D('',#575,#474,#475);
#384=AXIS2_PLACEMENT_3D('',#577,#477,#478);
#385=DIRECTION('axis',(0.,0.,1.));
#386=DIRECTION('refdir',(1.,0.,0.));
#387=DIRECTION('center_axis',(0.,1.,0.));
#388=DIRECTION('ref_axis',(1.,0.,0.));
#389=DIRECTION('',(0.,0.,-1.));
#390=DIRECTION('',(1.,0.,0.));
#391=DIRECTION('',(0.,0.,-1.));
#392=DIRECTION('',(-1.,0.,0.));
#393=DIRECTION('center_axis',(-1.,0.,0.));
#394=DIRECTION('ref_axis',(0.,0.,1.));
#395=DIRECTION('',(0.,1.,0.));
#396=DIRECTION('',(0.,0.,1.));
#397=DIRECTION('',(0.,1.,0.));
#398=DIRECTION('center_axis',(0.,0.,1.));
#399=DIRECTION('ref_axis',(1.,0.,0.));
#400=DIRECTION('center_axis',(0.,0.,1.));
#401=DIRECTION('ref_axis',(1.,0.,0.));
#402=DIRECTION('',(1.,0.,0.));
#403=DIRECTION('',(0.,1.,0.));
#404=DIRECTION('',(1.,0.,0.));
#405=DIRECTION('',(0.,1.,0.));
#406=DIRECTION('',(1.,0.,0.));
#407=DIRECTION('center_axis',(0.,0.,1.));
#408=DIRECTION('ref_axis',(0.,1.,0.));
#409=DIRECTION('',(0.,-1.,0.));
#410=DIRECTION('center_axis',(0.,0.,1.));
#411=DIRECTION('ref_axis',(-1.,0.,0.));
#412=DIRECTION('',(1.,0.,0.));
#413=DIRECTION('',(0.,1.,0.));
#414=DIRECTION('',(1.,0.,0.));
#415=DIRECTION('center_axis',(0.,0.,1.));
#416=DIRECTION('ref_axis',(0.,-1.,0.));
#417=DIRECTION('',(0.,1.,0.));
#418=DIRECTION('center_axis',(0.,0.,-1.));
#419=DIRECTION('ref_axis',(0.,1.,0.));
#420=DIRECTION('center_axis',(0.,0.,-1.));
#421=DIRECTION('ref_axis',(0.,1.,0.));
#422=DIRECTION('',(0.,0.,-1.));
#423=DIRECTION('',(0.,0.,-1.));
#424=DIRECTION('center_axis',(0.,0.,-1.));
#425=DIRECTION('ref_axis',(-1.,0.,0.));
#426=DIRECTION('',(0.,1.,0.));
#427=DIRECTION('center_axis',(0.,0.,-1.));
#428=DIRECTION('ref_axis',(1.,0.,0.));
#429=DIRECTION('',(-1.,0.,0.));
#430=DIRECTION('',(0.,1.,0.));
#431=DIRECTION('',(-1.,0.,0.));
#432=DIRECTION('center_axis',(0.,0.,-1.));
#433=DIRECTION('ref_axis',(0.,-1.,0.));
#434=DIRECTION('',(0.,1.,0.));
#435=DIRECTION('center_axis',(0.,0.,-1.));
#436=DIRECTION('ref_axis',(-1.,0.,0.));
#437=DIRECTION('',(-1.,0.,0.));
#438=DIRECTION('',(0.,1.,0.));
#439=DIRECTION('',(-1.,0.,0.));
#440=DIRECTION('',(0.,1.,0.));
#441=DIRECTION('',(-1.,0.,0.));
#442=DIRECTION('center_axis',(0.,1.,0.));
#443=DIRECTION('ref_axis',(1.,0.,0.));
#444=DIRECTION('',(0.,0.,-1.));
#445=DIRECTION('center_axis',(0.,1.,0.));
#446=DIRECTION('ref_axis',(1.,0.,0.));
#447=DIRECTION('',(0.,0.,1.));
#448=DIRECTION('',(0.,0.,-1.));
#449=DIRECTION('center_axis',(1.,0.,0.));
#450=DIRECTION('ref_axis',(0.,0.,-1.));
#451=DIRECTION('',(0.,0.,-1.));
#452=DIRECTION('center_axis',(0.,1.,0.));
#453=DIRECTION('ref_axis',(1.,0.,0.));
#454=DIRECTION('',(0.,0.,1.));
#455=DIRECTION('center_axis',(-1.,0.,0.));
#456=DIRECTION('ref_axis',(0.,0.,1.));
#457=DIRECTION('center_axis',(0.,0.,1.));
#458=DIRECTION('ref_axis',(0.,1.,0.));
#459=DIRECTION('',(0.,0.,1.));
#460=DIRECTION('center_axis',(-1.,0.,0.));
#461=DIRECTION('ref_axis',(0.,0.,1.));
#462=DIRECTION('',(0.,0.,-1.));
#463=DIRECTION('center_axis',(0.,0.,-1.));
#464=DIRECTION('ref_axis',(0.,-1.,0.));
#465=DIRECTION('',(0.,0.,-1.));
#466=DIRECTION('center_axis',(0.,1.,0.));
#467=DIRECTION('ref_axis',(1.,0.,0.));
#468=DIRECTION('',(0.,0.,-1.));
#469=DIRECTION('center_axis',(0.,1.,0.));
#470=DIRECTION('ref_axis',(1.,0.,0.));
#471=DIRECTION('',(0.,0.,1.));
#472=DIRECTION('center_axis',(1.,0.,0.));
#473=DIRECTION('ref_axis',(0.,0.,-1.));
#474=DIRECTION('center_axis',(0.,0.,1.));
#475=DIRECTION('ref_axis',(0.,-1.,0.));
#476=DIRECTION('',(0.,0.,1.));
#477=DIRECTION('center_axis',(1.,0.,0.));
#478=DIRECTION('ref_axis',(0.,0.,-1.));
#479=CARTESIAN_POINT('',(0.,0.,0.));
#480=CARTESIAN_POINT('Origin',(0.,-0.275,0.));
#481=CARTESIAN_POINT('',(1.05,-0.275,0.775));
#482=CARTESIAN_POINT('',(1.05,-0.275,-0.775));
#483=CARTESIAN_POINT('',(1.05,-0.275,0.775));
#484=CARTESIAN_POINT('',(-1.05,-0.275,0.775));
#485=CARTESIAN_POINT('',(-1.05,-0.275,0.775));
#486=CARTESIAN_POINT('',(-1.05,-0.275,-0.775));
#487=CARTESIAN_POINT('',(-1.05,-0.275,0.775));
#488=CARTESIAN_POINT('',(1.05,-0.275,-0.775));
#489=CARTESIAN_POINT('Origin',(1.05,-0.3,-0.775));
#490=CARTESIAN_POINT('',(1.05,-0.3,-0.775));
#491=CARTESIAN_POINT('',(1.05,-0.3,-0.775));
#492=CARTESIAN_POINT('',(1.05,-0.3,0.775));
#493=CARTESIAN_POINT('',(1.05,-0.3,-0.775));
#494=CARTESIAN_POINT('',(1.05,-0.3,0.775));
#495=CARTESIAN_POINT('Origin',(-1.55,-0.275,0.775));
#496=CARTESIAN_POINT('',(1.55,0.28,0.775));
#497=CARTESIAN_POINT('',(1.53,0.3,0.775));
#498=CARTESIAN_POINT('Origin',(1.53,0.28,0.775));
#499=CARTESIAN_POINT('',(1.05,0.3,0.775));
#500=CARTESIAN_POINT('',(1.05,0.3,0.775));
#501=CARTESIAN_POINT('',(1.05,0.305,0.775));
#502=CARTESIAN_POINT('',(1.05,0.3,0.775));
#503=CARTESIAN_POINT('',(-1.05,0.305,0.775));
#504=CARTESIAN_POINT('',(-1.05,0.305,0.775));
#505=CARTESIAN_POINT('',(-1.05,0.3,0.775));
#506=CARTESIAN_POINT('',(-1.05,0.3,0.775));
#507=CARTESIAN_POINT('',(-1.53,0.3,0.775));
#508=CARTESIAN_POINT('',(-1.53,0.3,0.775));
#509=CARTESIAN_POINT('',(-1.55,0.28,0.775));
#510=CARTESIAN_POINT('Origin',(-1.53,0.28,0.775));
#511=CARTESIAN_POINT('',(-1.55,-0.28,0.775));
#512=CARTESIAN_POINT('',(-1.55,0.28,0.775));
#513=CARTESIAN_POINT('',(-1.53,-0.3,0.775));
#514=CARTESIAN_POINT('Origin',(-1.53,-0.28,0.775));
#515=CARTESIAN_POINT('',(-1.05,-0.3,0.775));
#516=CARTESIAN_POINT('',(-1.53,-0.3,0.775));
#517=CARTESIAN_POINT('',(-1.05,-0.3,0.775));
#518=CARTESIAN_POINT('',(1.53,-0.3,0.775));
#519=CARTESIAN_POINT('',(1.05,-0.3,0.775));
#520=CARTESIAN_POINT('',(1.55,-0.28,0.775));
#521=CARTESIAN_POINT('Origin',(1.53,-0.28,0.775));
#522=CARTESIAN_POINT('',(1.55,-0.28,0.775));
#523=CARTESIAN_POINT('Origin',(1.53,0.28,2.79558));
#524=CARTESIAN_POINT('',(1.53,0.3,-0.775));
#525=CARTESIAN_POINT('',(1.55,0.28,-0.775));
#526=CARTESIAN_POINT('Origin',(1.53,0.28,-0.775));
#527=CARTESIAN_POINT('',(1.53,0.3,0.775));
#528=CARTESIAN_POINT('',(1.55,0.28,0.775));
#529=CARTESIAN_POINT('Origin',(1.55,-0.275,-0.775));
#530=CARTESIAN_POINT('',(1.55,-0.28,-0.775));
#531=CARTESIAN_POINT('',(1.55,-0.28,-0.775));
#532=CARTESIAN_POINT('',(1.53,-0.3,-0.775));
#533=CARTESIAN_POINT('Origin',(1.53,-0.28,-0.775));
#534=CARTESIAN_POINT('',(1.53,-0.3,-0.775));
#535=CARTESIAN_POINT('',(-1.05,-0.3,-0.775));
#536=CARTESIAN_POINT('',(-1.05,-0.3,-0.775));
#537=CARTESIAN_POINT('',(-1.53,-0.3,-0.775));
#538=CARTESIAN_POINT('',(-1.05,-0.3,-0.775));
#539=CARTESIAN_POINT('',(-1.55,-0.28,-0.775));
#540=CARTESIAN_POINT('Origin',(-1.53,-0.28,-0.775));
#541=CARTESIAN_POINT('',(-1.55,0.28,-0.775));
#542=CARTESIAN_POINT('',(-1.55,-0.28,-0.775));
#543=CARTESIAN_POINT('',(-1.53,0.3,-0.775));
#544=CARTESIAN_POINT('Origin',(-1.53,0.28,-0.775));
#545=CARTESIAN_POINT('',(-1.05,0.3,-0.775));
#546=CARTESIAN_POINT('',(-1.05,0.3,-0.775));
#547=CARTESIAN_POINT('',(-1.05,0.305,-0.775));
#548=CARTESIAN_POINT('',(-1.05,0.3,-0.775));
#549=CARTESIAN_POINT('',(1.05,0.305,-0.775));
#550=CARTESIAN_POINT('',(1.05,0.305,-0.775));
#551=CARTESIAN_POINT('',(1.05,0.3,-0.775));
#552=CARTESIAN_POINT('',(1.05,0.3,-0.775));
#553=CARTESIAN_POINT('',(1.53,0.3,-0.775));
#554=CARTESIAN_POINT('Origin',(0.,0.3,0.));
#555=CARTESIAN_POINT('',(1.05,0.3,0.775));
#556=CARTESIAN_POINT('Origin',(0.,0.3,0.));
#557=CARTESIAN_POINT('',(-1.53,0.3,-0.775));
#558=CARTESIAN_POINT('',(-1.05,0.3,0.775));
#559=CARTESIAN_POINT('Origin',(1.05,0.275,0.775));
#560=CARTESIAN_POINT('',(1.05,0.305,0.775));
#561=CARTESIAN_POINT('Origin',(0.,0.305,0.));
#562=CARTESIAN_POINT('',(-1.05,0.305,-0.775));
#563=CARTESIAN_POINT('Origin',(-1.05,0.275,-0.775));
#564=CARTESIAN_POINT('Origin',(-1.53,0.28,-2.79558));
#565=CARTESIAN_POINT('',(-1.55,0.28,-0.775));
#566=CARTESIAN_POINT('Origin',(-1.55,-0.275,-0.775));
#567=CARTESIAN_POINT('',(-1.55,-0.28,0.775));
#568=CARTESIAN_POINT('Origin',(-1.53,-0.28,2.79558));
#569=CARTESIAN_POINT('',(-1.53,-0.3,0.775));
#570=CARTESIAN_POINT('Origin',(0.,-0.3,0.));
#571=CARTESIAN_POINT('',(-1.05,-0.3,0.775));
#572=CARTESIAN_POINT('Origin',(0.,-0.3,0.));
#573=CARTESIAN_POINT('',(1.53,-0.3,-0.775));
#574=CARTESIAN_POINT('Origin',(-1.05,-0.3,0.775));
#575=CARTESIAN_POINT('Origin',(1.53,-0.28,-2.79558));
#576=CARTESIAN_POINT('',(1.55,-0.28,-0.775));
#577=CARTESIAN_POINT('Origin',(1.55,-0.275,0.775));
#578=UNCERTAINTY_MEASURE_WITH_UNIT(LENGTH_MEASURE(0.01),#582,
'DISTANCE_ACCURACY_VALUE',
'Maximum model space distance between geometric entities at asserted c
onnectivities');
#579=UNCERTAINTY_MEASURE_WITH_UNIT(LENGTH_MEASURE(1.E-6),#582,
'DISTANCE_ACCURACY_VALUE',
'Maximum model space distance between geometric entities at asserted c
onnectivities');
#580=(
GEOMETRIC_REPRESENTATION_CONTEXT(3)
GLOBAL_UNCERTAINTY_ASSIGNED_CONTEXT((#578))
GLOBAL_UNIT_ASSIGNED_CONTEXT((#582,#585,#583))
REPRESENTATION_CONTEXT('','3D')
);
#581=(
GEOMETRIC_REPRESENTATION_CONTEXT(3)
GLOBAL_UNCERTAINTY_ASSIGNED_CONTEXT((#579))
GLOBAL_UNIT_ASSIGNED_CONTEXT((#582,#585,#583))
REPRESENTATION_CONTEXT('','3D')
);
#582=(
LENGTH_UNIT()
NAMED_UNIT(*)
SI_UNIT(.MILLI.,.METRE.)
);
#583=(
NAMED_UNIT(*)
SI_UNIT($,.STERADIAN.)
SOLID_ANGLE_UNIT()
);
#584=DIMENSIONAL_EXPONENTS(0.,0.,0.,0.,0.,0.,0.);
#585=(
CONVERSION_BASED_UNIT('degree',#587)
NAMED_UNIT(#584)
PLANE_ANGLE_UNIT()
);
#586=(
NAMED_UNIT(*)
PLANE_ANGLE_UNIT()
SI_UNIT($,.RADIAN.)
);
#587=PLANE_ANGLE_MEASURE_WITH_UNIT(PLANE_ANGLE_MEASURE(0.01745329252),#586);
#588=SHAPE_DEFINITION_REPRESENTATION(#589,#590);
#589=PRODUCT_DEFINITION_SHAPE('',$,#592);
#590=SHAPE_REPRESENTATION('',(#358),#580);
#591=PRODUCT_DEFINITION_CONTEXT('part definition',#596,'design');
#592=PRODUCT_DEFINITION('sf-1206fp_series-1','sf-1206fp_series-1',#593,
#591);
#593=PRODUCT_DEFINITION_FORMATION('2LAST_VERSION',$,#598);
#594=PRODUCT_RELATED_PRODUCT_CATEGORY('sf-1206fp_series-1',
'sf-1206fp_series-1',(#598));
#595=APPLICATION_PROTOCOL_DEFINITION('international standard',
'automotive_design',2009,#596);
#596=APPLICATION_CONTEXT(
'Core Data for Automotive Mechanical Design Process');
#597=PRODUCT_CONTEXT('part definition',#596,'mechanical');
#598=PRODUCT('sf-1206fp_series-1','sf-1206fp_series-1',$,(#597));
#599=PRESENTATION_STYLE_ASSIGNMENT((#600));
#600=SURFACE_STYLE_USAGE(.BOTH.,#601);
#601=SURFACE_SIDE_STYLE('',(#602));
#602=SURFACE_STYLE_FILL_AREA(#603);
#603=FILL_AREA_STYLE('',(#604));
#604=FILL_AREA_STYLE_COLOUR('',#605);
#605=COLOUR_RGB('',0.749019607843137,0.749019607843137,0.749019607843137);
ENDSEC;
END-ISO-10303-21;
