ISO-10303-21;
HEADER;
FILE_DESCRIPTION((''),'2;1');
FILE_NAME('RLB1314-151KL','2012-07-16T',('ryans'),('Bourns, Inc.'),
'PRO/ENGINEER BY PARAMETRIC TECHNOLOGY CORPORATION, 2010100',
'PRO/ENGINEER BY PARAMETRIC TECHNOLOGY CORPORATION, 2010100','');
FILE_SCHEMA(('CONFIG_CONTROL_DESIGN'));
ENDSEC;
DATA;
#1=CARTESIAN_POINT('',(0.E0,0.E0,-3.9E0));
#2=DIRECTION('',(0.E0,1.E0,0.E0));
#3=DIRECTION('',(1.E0,0.E0,0.E0));
#4=AXIS2_PLACEMENT_3D('',#1,#2,#3);
#6=CARTESIAN_POINT('',(0.E0,0.E0,-3.9E0));
#7=DIRECTION('',(0.E0,1.E0,0.E0));
#8=DIRECTION('',(-1.E0,0.E0,0.E0));
#9=AXIS2_PLACEMENT_3D('',#6,#7,#8);
#11=CARTESIAN_POINT('',(0.E0,0.E0,3.9E0));
#12=DIRECTION('',(0.E0,1.E0,0.E0));
#13=DIRECTION('',(1.E0,0.E0,0.E0));
#14=AXIS2_PLACEMENT_3D('',#11,#12,#13);
#16=CARTESIAN_POINT('',(0.E0,0.E0,3.9E0));
#17=DIRECTION('',(0.E0,1.E0,0.E0));
#18=DIRECTION('',(-1.E0,0.E0,0.E0));
#19=AXIS2_PLACEMENT_3D('',#16,#17,#18);
#21=CARTESIAN_POINT('',(0.E0,0.E0,0.E0));
#22=DIRECTION('',(0.E0,-1.E0,0.E0));
#23=DIRECTION('',(1.E0,0.E0,0.E0));
#24=AXIS2_PLACEMENT_3D('',#21,#22,#23);
#26=CARTESIAN_POINT('',(0.E0,0.E0,1.224646799147E-14));
#27=DIRECTION('',(0.E0,-1.E0,0.E0));
#28=DIRECTION('',(-1.E0,0.E0,0.E0));
#29=AXIS2_PLACEMENT_3D('',#26,#27,#28);
#31=DIRECTION('',(0.E0,1.E0,0.E0));
#32=VECTOR('',#31,2.E1);
#33=CARTESIAN_POINT('',(4.E-1,-2.E1,-3.9E0));
#34=LINE('',#33,#32);
#35=DIRECTION('',(0.E0,1.E0,0.E0));
#36=VECTOR('',#35,2.E1);
#37=CARTESIAN_POINT('',(-4.E-1,-2.E1,-3.9E0));
#38=LINE('',#37,#36);
#39=CARTESIAN_POINT('',(0.E0,-2.E1,-3.9E0));
#40=DIRECTION('',(0.E0,-1.E0,0.E0));
#41=DIRECTION('',(-1.E0,0.E0,0.E0));
#42=AXIS2_PLACEMENT_3D('',#39,#40,#41);
#44=CARTESIAN_POINT('',(0.E0,-2.E1,-3.9E0));
#45=DIRECTION('',(0.E0,-1.E0,0.E0));
#46=DIRECTION('',(1.E0,0.E0,0.E0));
#47=AXIS2_PLACEMENT_3D('',#44,#45,#46);
#49=DIRECTION('',(0.E0,-1.E0,0.E0));
#50=VECTOR('',#49,2.E1);
#51=CARTESIAN_POINT('',(4.E-1,0.E0,3.9E0));
#52=LINE('',#51,#50);
#53=DIRECTION('',(0.E0,-1.E0,0.E0));
#54=VECTOR('',#53,2.E1);
#55=CARTESIAN_POINT('',(-4.E-1,0.E0,3.9E0));
#56=LINE('',#55,#54);
#57=CARTESIAN_POINT('',(0.E0,-2.E1,3.9E0));
#58=DIRECTION('',(0.E0,1.E0,0.E0));
#59=DIRECTION('',(1.E0,0.E0,0.E0));
#60=AXIS2_PLACEMENT_3D('',#57,#58,#59);
#62=CARTESIAN_POINT('',(0.E0,-2.E1,3.9E0));
#63=DIRECTION('',(0.E0,1.E0,0.E0));
#64=DIRECTION('',(-1.E0,0.E0,0.E0));
#65=AXIS2_PLACEMENT_3D('',#62,#63,#64);
#67=DIRECTION('',(7.071067811865E-1,7.071067811865E-1,2.703128108029E-11));
#68=VECTOR('',#67,5.656854249497E-1);
#69=CARTESIAN_POINT('',(5.449999999998E0,-1.748231189443E-12,
-7.841894875104E-11));
#70=LINE('',#69,#68);
#71=DIRECTION('',(-7.071067811865E-1,7.071067811865E-1,-2.703164174830E-11));
#72=VECTOR('',#71,5.656854249497E-1);
#73=CARTESIAN_POINT('',(-5.449999999998E0,-1.748231189443E-12,
7.844316583910E-11));
#74=LINE('',#73,#72);
#75=CARTESIAN_POINT('',(0.E0,4.E-1,1.224646799147E-14));
#76=DIRECTION('',(0.E0,-1.E0,0.E0));
#77=DIRECTION('',(-1.E0,0.E0,0.E0));
#78=AXIS2_PLACEMENT_3D('',#75,#76,#77);
#80=DIRECTION('',(0.E0,1.E0,0.E0));
#81=VECTOR('',#80,1.22E1);
#82=CARTESIAN_POINT('',(5.849999999999E0,3.999999999986E-1,
-6.312774702620E-11));
#83=LINE('',#82,#81);
#84=CARTESIAN_POINT('',(0.E0,1.26E1,1.224646799147E-14));
#85=DIRECTION('',(0.E0,1.E0,0.E0));
#86=DIRECTION('',(1.E0,0.E0,0.E0));
#87=AXIS2_PLACEMENT_3D('',#84,#85,#86);
#89=CARTESIAN_POINT('',(0.E0,4.E-1,1.224646799147E-14));
#90=DIRECTION('',(0.E0,-1.E0,0.E0));
#91=DIRECTION('',(1.E0,0.E0,0.E0));
#92=AXIS2_PLACEMENT_3D('',#89,#90,#91);
#94=DIRECTION('',(0.E0,1.E0,0.E0));
#95=VECTOR('',#94,1.22E1);
#96=CARTESIAN_POINT('',(-5.849999999999E0,3.999999999986E-1,
6.315176008963E-11));
#97=LINE('',#96,#95);
#98=CARTESIAN_POINT('',(0.E0,1.26E1,1.224646799147E-14));
#99=DIRECTION('',(0.E0,1.E0,0.E0));
#100=DIRECTION('',(-1.E0,0.E0,0.E0));
#101=AXIS2_PLACEMENT_3D('',#98,#99,#100);
#103=DIRECTION('',(-7.071067811865E-1,-7.071067811865E-1,-2.702878941367E-11));
#104=VECTOR('',#103,5.656854249497E-1);
#105=CARTESIAN_POINT('',(-5.449999999998E0,1.3E1,7.844155231498E-11));
#106=LINE('',#105,#104);
#107=CARTESIAN_POINT('',(0.E0,1.3E1,0.E0));
#108=DIRECTION('',(0.E0,1.E0,0.E0));
#109=DIRECTION('',(-1.E0,0.E0,0.E0));
#110=AXIS2_PLACEMENT_3D('',#107,#108,#109);
#112=CARTESIAN_POINT('',(0.E0,1.3E1,1.224646799147E-14));
#113=DIRECTION('',(0.E0,1.E0,0.E0));
#114=DIRECTION('',(1.E0,0.E0,0.E0));
#115=AXIS2_PLACEMENT_3D('',#112,#113,#114);
#117=DIRECTION('',(7.071067811865E-1,-7.071067811865E-1,2.702971589437E-11));
#118=VECTOR('',#117,5.656854249497E-1);
#119=CARTESIAN_POINT('',(5.449999999998E0,1.3E1,-7.841773860794E-11));
#120=LINE('',#119,#118);
#121=CARTESIAN_POINT('',(-4.E-1,-2.E1,-3.9E0));
#122=CARTESIAN_POINT('',(4.E-1,-2.E1,-3.9E0));
#123=VERTEX_POINT('',#121);
#124=VERTEX_POINT('',#122);
#125=CARTESIAN_POINT('',(4.E-1,0.E0,-3.9E0));
#126=VERTEX_POINT('',#125);
#127=CARTESIAN_POINT('',(-4.E-1,0.E0,-3.9E0));
#128=VERTEX_POINT('',#127);
#129=CARTESIAN_POINT('',(4.E-1,-2.E1,3.9E0));
#130=CARTESIAN_POINT('',(-4.E-1,-2.E1,3.9E0));
#131=VERTEX_POINT('',#129);
#132=VERTEX_POINT('',#130);
#133=CARTESIAN_POINT('',(4.E-1,0.E0,3.9E0));
#134=CARTESIAN_POINT('',(-4.E-1,0.E0,3.9E0));
#135=VERTEX_POINT('',#133);
#136=VERTEX_POINT('',#134);
#137=CARTESIAN_POINT('',(5.45E0,0.E0,1.224646799147E-14));
#138=CARTESIAN_POINT('',(-5.45E0,0.E0,1.275378925956E-14));
#139=VERTEX_POINT('',#137);
#140=VERTEX_POINT('',#138);
#141=CARTESIAN_POINT('',(5.85E0,4.E-1,1.367930474648E-14));
#142=CARTESIAN_POINT('',(-5.85E0,4.E-1,1.153004961397E-14));
#143=VERTEX_POINT('',#141);
#144=VERTEX_POINT('',#142);
#145=CARTESIAN_POINT('',(5.849999999999E0,1.26E1,-6.312742228596E-11));
#146=VERTEX_POINT('',#145);
#147=CARTESIAN_POINT('',(-5.849999999999E0,1.26E1,6.315176008963E-11));
#148=VERTEX_POINT('',#147);
#149=CARTESIAN_POINT('',(-5.45E0,1.3E1,1.157903548594E-14));
#150=CARTESIAN_POINT('',(5.45E0,1.3E1,1.342122176510E-14));
#151=VERTEX_POINT('',#149);
#152=VERTEX_POINT('',#150);
#153=CARTESIAN_POINT('',(0.E0,0.E0,0.E0));
#154=DIRECTION('',(0.E0,1.E0,0.E0));
#155=DIRECTION('',(1.E0,0.E0,0.E0));
#156=AXIS2_PLACEMENT_3D('',#153,#154,#155);
#157=PLANE('',#156);
#159=ORIENTED_EDGE('',*,*,#158,.F.);
#161=ORIENTED_EDGE('',*,*,#160,.F.);
#162=EDGE_LOOP('',(#159,#161));
#163=FACE_OUTER_BOUND('',#162,.F.);
#165=ORIENTED_EDGE('',*,*,#164,.F.);
#167=ORIENTED_EDGE('',*,*,#166,.F.);
#168=EDGE_LOOP('',(#165,#167));
#169=FACE_BOUND('',#168,.F.);
#171=ORIENTED_EDGE('',*,*,#170,.F.);
#173=ORIENTED_EDGE('',*,*,#172,.F.);
#174=EDGE_LOOP('',(#171,#173));
#175=FACE_BOUND('',#174,.F.);
#177=CARTESIAN_POINT('',(0.E0,0.E0,-3.9E0));
#178=DIRECTION('',(0.E0,1.E0,0.E0));
#179=DIRECTION('',(1.E0,0.E0,0.E0));
#180=AXIS2_PLACEMENT_3D('',#177,#178,#179);
#181=CYLINDRICAL_SURFACE('',#180,4.E-1);
#183=ORIENTED_EDGE('',*,*,#182,.T.);
#184=ORIENTED_EDGE('',*,*,#170,.T.);
#186=ORIENTED_EDGE('',*,*,#185,.F.);
#188=ORIENTED_EDGE('',*,*,#187,.T.);
#189=EDGE_LOOP('',(#183,#184,#186,#188));
#190=FACE_OUTER_BOUND('',#189,.F.);
#192=CARTESIAN_POINT('',(0.E0,0.E0,-3.9E0));
#193=DIRECTION('',(0.E0,1.E0,0.E0));
#194=DIRECTION('',(1.E0,0.E0,0.E0));
#195=AXIS2_PLACEMENT_3D('',#192,#193,#194);
#196=CYLINDRICAL_SURFACE('',#195,4.E-1);
#197=ORIENTED_EDGE('',*,*,#182,.F.);
#199=ORIENTED_EDGE('',*,*,#198,.T.);
#200=ORIENTED_EDGE('',*,*,#185,.T.);
#201=ORIENTED_EDGE('',*,*,#172,.T.);
#202=EDGE_LOOP('',(#197,#199,#200,#201));
#203=FACE_OUTER_BOUND('',#202,.F.);
#205=CARTESIAN_POINT('',(0.E0,-2.E1,0.E0));
#206=DIRECTION('',(0.E0,1.E0,0.E0));
#207=DIRECTION('',(1.E0,0.E0,0.E0));
#208=AXIS2_PLACEMENT_3D('',#205,#206,#207);
#209=PLANE('',#208);
#210=ORIENTED_EDGE('',*,*,#187,.F.);
#211=ORIENTED_EDGE('',*,*,#198,.F.);
#212=EDGE_LOOP('',(#210,#211));
#213=FACE_OUTER_BOUND('',#212,.F.);
#215=CARTESIAN_POINT('',(0.E0,0.E0,3.9E0));
#216=DIRECTION('',(0.E0,1.E0,0.E0));
#217=DIRECTION('',(1.E0,0.E0,0.E0));
#218=AXIS2_PLACEMENT_3D('',#215,#216,#217);
#219=CYLINDRICAL_SURFACE('',#218,4.E-1);
#220=ORIENTED_EDGE('',*,*,#164,.T.);
#222=ORIENTED_EDGE('',*,*,#221,.T.);
#224=ORIENTED_EDGE('',*,*,#223,.F.);
#226=ORIENTED_EDGE('',*,*,#225,.F.);
#227=EDGE_LOOP('',(#220,#222,#224,#226));
#228=FACE_OUTER_BOUND('',#227,.F.);
#230=CARTESIAN_POINT('',(0.E0,0.E0,3.9E0));
#231=DIRECTION('',(0.E0,1.E0,0.E0));
#232=DIRECTION('',(1.E0,0.E0,0.E0));
#233=AXIS2_PLACEMENT_3D('',#230,#231,#232);
#234=CYLINDRICAL_SURFACE('',#233,4.E-1);
#235=ORIENTED_EDGE('',*,*,#166,.T.);
#236=ORIENTED_EDGE('',*,*,#225,.T.);
#238=ORIENTED_EDGE('',*,*,#237,.F.);
#239=ORIENTED_EDGE('',*,*,#221,.F.);
#240=EDGE_LOOP('',(#235,#236,#238,#239));
#241=FACE_OUTER_BOUND('',#240,.F.);
#243=CARTESIAN_POINT('',(0.E0,-2.E1,0.E0));
#244=DIRECTION('',(0.E0,1.E0,0.E0));
#245=DIRECTION('',(1.E0,0.E0,0.E0));
#246=AXIS2_PLACEMENT_3D('',#243,#244,#245);
#247=PLANE('',#246);
#248=ORIENTED_EDGE('',*,*,#223,.T.);
#249=ORIENTED_EDGE('',*,*,#237,.T.);
#250=EDGE_LOOP('',(#248,#249));
#251=FACE_OUTER_BOUND('',#250,.F.);
#253=CARTESIAN_POINT('',(0.E0,1.999999999983E-1,0.E0));
#254=DIRECTION('',(0.E0,1.E0,0.E0));
#255=DIRECTION('',(0.E0,0.E0,-1.E0));
#256=AXIS2_PLACEMENT_3D('',#253,#254,#255);
#257=CONICAL_SURFACE('',#256,5.649999999998E0,4.5E1);
#258=ORIENTED_EDGE('',*,*,#158,.T.);
#260=ORIENTED_EDGE('',*,*,#259,.T.);
#262=ORIENTED_EDGE('',*,*,#261,.F.);
#264=ORIENTED_EDGE('',*,*,#263,.F.);
#265=EDGE_LOOP('',(#258,#260,#262,#264));
#266=FACE_OUTER_BOUND('',#265,.F.);
#268=CARTESIAN_POINT('',(0.E0,1.999999999983E-1,1.224646799147E-14));
#269=DIRECTION('',(0.E0,1.E0,0.E0));
#270=DIRECTION('',(0.E0,0.E0,-1.E0));
#271=AXIS2_PLACEMENT_3D('',#268,#269,#270);
#272=CONICAL_SURFACE('',#271,5.649999999998E0,4.5E1);
#273=ORIENTED_EDGE('',*,*,#160,.T.);
#274=ORIENTED_EDGE('',*,*,#263,.T.);
#276=ORIENTED_EDGE('',*,*,#275,.F.);
#277=ORIENTED_EDGE('',*,*,#259,.F.);
#278=EDGE_LOOP('',(#273,#274,#276,#277));
#279=FACE_OUTER_BOUND('',#278,.F.);
#281=CARTESIAN_POINT('',(0.E0,0.E0,1.224646799147E-14));
#282=DIRECTION('',(0.E0,1.E0,0.E0));
#283=DIRECTION('',(1.E0,0.E0,0.E0));
#284=AXIS2_PLACEMENT_3D('',#281,#282,#283);
#285=CYLINDRICAL_SURFACE('',#284,5.85E0);
#286=ORIENTED_EDGE('',*,*,#275,.T.);
#288=ORIENTED_EDGE('',*,*,#287,.T.);
#290=ORIENTED_EDGE('',*,*,#289,.T.);
#292=ORIENTED_EDGE('',*,*,#291,.F.);
#293=EDGE_LOOP('',(#286,#288,#290,#292));
#294=FACE_OUTER_BOUND('',#293,.F.);
#296=CARTESIAN_POINT('',(0.E0,0.E0,1.224646799147E-14));
#297=DIRECTION('',(0.E0,1.E0,0.E0));
#298=DIRECTION('',(1.E0,0.E0,0.E0));
#299=AXIS2_PLACEMENT_3D('',#296,#297,#298);
#300=CYLINDRICAL_SURFACE('',#299,5.85E0);
#301=ORIENTED_EDGE('',*,*,#261,.T.);
#302=ORIENTED_EDGE('',*,*,#291,.T.);
#304=ORIENTED_EDGE('',*,*,#303,.T.);
#305=ORIENTED_EDGE('',*,*,#287,.F.);
#306=EDGE_LOOP('',(#301,#302,#304,#305));
#307=FACE_OUTER_BOUND('',#306,.F.);
#309=CARTESIAN_POINT('',(0.E0,1.28E1,0.E0));
#310=DIRECTION('',(0.E0,-1.E0,0.E0));
#311=DIRECTION('',(0.E0,0.E0,-1.E0));
#312=AXIS2_PLACEMENT_3D('',#309,#310,#311);
#313=CONICAL_SURFACE('',#312,5.649999999998E0,4.5E1);
#315=ORIENTED_EDGE('',*,*,#314,.T.);
#317=ORIENTED_EDGE('',*,*,#316,.T.);
#318=ORIENTED_EDGE('',*,*,#303,.F.);
#320=ORIENTED_EDGE('',*,*,#319,.F.);
#321=EDGE_LOOP('',(#315,#317,#318,#320));
#322=FACE_OUTER_BOUND('',#321,.F.);
#324=CARTESIAN_POINT('',(0.E0,1.3E1,0.E0));
#325=DIRECTION('',(0.E0,1.E0,0.E0));
#326=DIRECTION('',(1.E0,0.E0,0.E0));
#327=AXIS2_PLACEMENT_3D('',#324,#325,#326);
#328=PLANE('',#327);
#329=ORIENTED_EDGE('',*,*,#314,.F.);
#331=ORIENTED_EDGE('',*,*,#330,.F.);
#332=EDGE_LOOP('',(#329,#331));
#333=FACE_OUTER_BOUND('',#332,.F.);
#335=CARTESIAN_POINT('',(0.E0,1.28E1,1.224646799147E-14));
#336=DIRECTION('',(0.E0,-1.E0,0.E0));
#337=DIRECTION('',(0.E0,0.E0,-1.E0));
#338=AXIS2_PLACEMENT_3D('',#335,#336,#337);
#339=CONICAL_SURFACE('',#338,5.649999999998E0,4.5E1);
#340=ORIENTED_EDGE('',*,*,#330,.T.);
#341=ORIENTED_EDGE('',*,*,#319,.T.);
#342=ORIENTED_EDGE('',*,*,#289,.F.);
#343=ORIENTED_EDGE('',*,*,#316,.F.);
#344=EDGE_LOOP('',(#340,#341,#342,#343));
#345=FACE_OUTER_BOUND('',#344,.F.);
#347=CLOSED_SHELL('',(#176,#191,#204,#214,#229,#242,#252,#267,#280,#295,#308,
#323,#334,#346));
#348=MANIFOLD_SOLID_BREP('',#347);
#350=DIMENSIONAL_EXPONENTS(0.E0,0.E0,0.E0,0.E0,0.E0,0.E0,0.E0);
#352=PLANE_ANGLE_MEASURE_WITH_UNIT(PLANE_ANGLE_MEASURE(1.745329251994E-2),#351);
#353=(CONVERSION_BASED_UNIT('DEGREE',#352)NAMED_UNIT(*)PLANE_ANGLE_UNIT());
#355=UNCERTAINTY_MEASURE_WITH_UNIT(LENGTH_MEASURE(1.538151021425E-3),#349,
'closure',
'Maximum model space distance between geometric entities at asserted connectivities');
#358=APPLICATION_CONTEXT(
'CONFIGURATION CONTROLLED 3D DESIGNS OF MECHANICAL PARTS AND ASSEMBLIES');
#359=APPLICATION_PROTOCOL_DEFINITION('international standard',
'config_control_design',1994,#358);
#360=DESIGN_CONTEXT('',#358,'design');
#361=MECHANICAL_CONTEXT('',#358,'mechanical');
#362=PRODUCT('RLB1314-151KL','RLB1314-151KL','NOT SPECIFIED',(#361));
#363=PRODUCT_DEFINITION_FORMATION_WITH_SPECIFIED_SOURCE('1','LAST_VERSION',#362,
.MADE.);
#367=PRODUCT_CATEGORY('part','');
#368=PRODUCT_RELATED_PRODUCT_CATEGORY('detail','',(#362));
#369=PRODUCT_CATEGORY_RELATIONSHIP('','',#367,#368);
#370=SECURITY_CLASSIFICATION_LEVEL('unclassified');
#371=SECURITY_CLASSIFICATION('','',#370);
#372=CC_DESIGN_SECURITY_CLASSIFICATION(#371,(#363));
#373=APPROVAL_STATUS('approved');
#374=APPROVAL(#373,'');
#375=CC_DESIGN_APPROVAL(#374,(#371,#363,#364));
#376=CALENDAR_DATE(112,16,7);
#377=COORDINATED_UNIVERSAL_TIME_OFFSET(7,0,.BEHIND.);
#378=LOCAL_TIME(8,42,2.4E1,#377);
#379=DATE_AND_TIME(#376,#378);
#380=APPROVAL_DATE_TIME(#379,#374);
#381=DATE_TIME_ROLE('creation_date');
#382=CC_DESIGN_DATE_AND_TIME_ASSIGNMENT(#379,#381,(#364));
#383=DATE_TIME_ROLE('classification_date');
#384=CC_DESIGN_DATE_AND_TIME_ASSIGNMENT(#379,#383,(#371));
#385=PERSON('UNSPECIFIED','UNSPECIFIED',$,$,$,$);
#386=ORGANIZATION('UNSPECIFIED','UNSPECIFIED','UNSPECIFIED');
#387=PERSON_AND_ORGANIZATION(#385,#386);
#388=APPROVAL_ROLE('approver');
#389=APPROVAL_PERSON_ORGANIZATION(#387,#374,#388);
#390=PERSON_AND_ORGANIZATION_ROLE('creator');
#391=CC_DESIGN_PERSON_AND_ORGANIZATION_ASSIGNMENT(#387,#390,(#363,#364));
#392=PERSON_AND_ORGANIZATION_ROLE('design_supplier');
#393=CC_DESIGN_PERSON_AND_ORGANIZATION_ASSIGNMENT(#387,#392,(#363));
#394=PERSON_AND_ORGANIZATION_ROLE('classification_officer');
#395=CC_DESIGN_PERSON_AND_ORGANIZATION_ASSIGNMENT(#387,#394,(#371));
#396=PERSON_AND_ORGANIZATION_ROLE('design_owner');
#397=CC_DESIGN_PERSON_AND_ORGANIZATION_ASSIGNMENT(#387,#396,(#362));
#5=CIRCLE('',#4,4.E-1);
#10=CIRCLE('',#9,4.E-1);
#15=CIRCLE('',#14,4.E-1);
#20=CIRCLE('',#19,4.E-1);
#25=CIRCLE('',#24,5.45E0);
#30=CIRCLE('',#29,5.45E0);
#43=CIRCLE('',#42,4.E-1);
#48=CIRCLE('',#47,4.E-1);
#61=CIRCLE('',#60,4.E-1);
#66=CIRCLE('',#65,4.E-1);
#79=CIRCLE('',#78,5.85E0);
#88=CIRCLE('',#87,5.85E0);
#93=CIRCLE('',#92,5.85E0);
#102=CIRCLE('',#101,5.85E0);
#111=CIRCLE('',#110,5.45E0);
#116=CIRCLE('',#115,5.45E0);
#158=EDGE_CURVE('',#139,#140,#25,.T.);
#160=EDGE_CURVE('',#140,#139,#30,.T.);
#164=EDGE_CURVE('',#135,#136,#15,.T.);
#166=EDGE_CURVE('',#136,#135,#20,.T.);
#170=EDGE_CURVE('',#126,#128,#5,.T.);
#172=EDGE_CURVE('',#128,#126,#10,.T.);
#176=ADVANCED_FACE('',(#163,#169,#175),#157,.F.);
#182=EDGE_CURVE('',#124,#126,#34,.T.);
#185=EDGE_CURVE('',#123,#128,#38,.T.);
#187=EDGE_CURVE('',#123,#124,#43,.T.);
#191=ADVANCED_FACE('',(#190),#181,.T.);
#198=EDGE_CURVE('',#124,#123,#48,.T.);
#204=ADVANCED_FACE('',(#203),#196,.T.);
#214=ADVANCED_FACE('',(#213),#209,.F.);
#221=EDGE_CURVE('',#136,#132,#56,.T.);
#223=EDGE_CURVE('',#131,#132,#61,.T.);
#225=EDGE_CURVE('',#135,#131,#52,.T.);
#229=ADVANCED_FACE('',(#228),#219,.T.);
#237=EDGE_CURVE('',#132,#131,#66,.T.);
#242=ADVANCED_FACE('',(#241),#234,.T.);
#252=ADVANCED_FACE('',(#251),#247,.F.);
#259=EDGE_CURVE('',#140,#144,#74,.T.);
#261=EDGE_CURVE('',#143,#144,#93,.T.);
#263=EDGE_CURVE('',#139,#143,#70,.T.);
#267=ADVANCED_FACE('',(#266),#257,.T.);
#275=EDGE_CURVE('',#144,#143,#79,.T.);
#280=ADVANCED_FACE('',(#279),#272,.T.);
#287=EDGE_CURVE('',#143,#146,#83,.T.);
#289=EDGE_CURVE('',#146,#148,#88,.T.);
#291=EDGE_CURVE('',#144,#148,#97,.T.);
#295=ADVANCED_FACE('',(#294),#285,.T.);
#303=EDGE_CURVE('',#148,#146,#102,.T.);
#308=ADVANCED_FACE('',(#307),#300,.T.);
#314=EDGE_CURVE('',#151,#152,#111,.T.);
#316=EDGE_CURVE('',#152,#146,#120,.T.);
#319=EDGE_CURVE('',#151,#148,#106,.T.);
#323=ADVANCED_FACE('',(#322),#313,.T.);
#330=EDGE_CURVE('',#152,#151,#116,.T.);
#334=ADVANCED_FACE('',(#333),#328,.T.);
#346=ADVANCED_FACE('',(#345),#339,.T.);
#349=(LENGTH_UNIT()NAMED_UNIT(*)SI_UNIT(.MILLI.,.METRE.));
#351=(NAMED_UNIT(*)PLANE_ANGLE_UNIT()SI_UNIT($,.RADIAN.));
#354=(NAMED_UNIT(*)SI_UNIT($,.STERADIAN.)SOLID_ANGLE_UNIT());
#356=(GEOMETRIC_REPRESENTATION_CONTEXT(3)GLOBAL_UNCERTAINTY_ASSIGNED_CONTEXT((
#355))GLOBAL_UNIT_ASSIGNED_CONTEXT((#349,#353,#354))REPRESENTATION_CONTEXT
('ID1','3'));
#357=ADVANCED_BREP_SHAPE_REPRESENTATION('',(#348),#356);
#364=PRODUCT_DEFINITION('design','',#363,#360);
#365=PRODUCT_DEFINITION_SHAPE('','SHAPE FOR RLB1314-151KL.',#364);
#366=SHAPE_DEFINITION_REPRESENTATION(#365,#357);
ENDSEC;
END-ISO-10303-21;
