ISO-10303-21;
HEADER;
FILE_DESCRIPTION((''),'2;1');
FILE_NAME('RL875S','2012-08-10T',('ryans'),('Bourns, Inc.'),
'PRO/ENGINEER BY PARAMETRIC TECHNOLOGY CORPORATION, 2010100',
'PRO/ENGINEER BY PARAMETRIC TECHNOLOGY CORPORATION, 2010100','');
FILE_SCHEMA(('CONFIG_CONTROL_DESIGN'));
ENDSEC;
DATA;
#1=CARTESIAN_POINT('',(2.5E0,-3.25E0,0.E0));
#2=DIRECTION('',(0.E0,-1.E0,0.E0));
#3=DIRECTION('',(1.E0,0.E0,0.E0));
#4=AXIS2_PLACEMENT_3D('',#1,#2,#3);
#6=CARTESIAN_POINT('',(2.5E0,-3.25E0,0.E0));
#7=DIRECTION('',(0.E0,-1.E0,0.E0));
#8=DIRECTION('',(-1.E0,0.E0,0.E0));
#9=AXIS2_PLACEMENT_3D('',#6,#7,#8);
#11=CARTESIAN_POINT('',(-2.5E0,-3.25E0,0.E0));
#12=DIRECTION('',(0.E0,-1.E0,0.E0));
#13=DIRECTION('',(1.E0,0.E0,0.E0));
#14=AXIS2_PLACEMENT_3D('',#11,#12,#13);
#16=CARTESIAN_POINT('',(-2.5E0,-3.25E0,0.E0));
#17=DIRECTION('',(0.E0,-1.E0,0.E0));
#18=DIRECTION('',(-1.E0,0.E0,0.E0));
#19=AXIS2_PLACEMENT_3D('',#16,#17,#18);
#21=DIRECTION('',(0.E0,0.E0,1.E0));
#22=VECTOR('',#21,5.E-1);
#23=CARTESIAN_POINT('',(2.E0,-3.25E0,-3.348133808557E0));
#24=LINE('',#23,#22);
#25=DIRECTION('',(-1.E0,0.E0,0.E0));
#26=VECTOR('',#25,3.E0);
#27=CARTESIAN_POINT('',(1.5E0,-3.25E0,-2.348133808557E0));
#28=LINE('',#27,#26);
#29=DIRECTION('',(0.E0,0.E0,-1.E0));
#30=VECTOR('',#29,5.E-1);
#31=CARTESIAN_POINT('',(-2.E0,-3.25E0,-2.848133808557E0));
#32=LINE('',#31,#30);
#33=CARTESIAN_POINT('',(0.E0,-3.25E0,1.224646799147E-14));
#34=DIRECTION('',(0.E0,1.E0,0.E0));
#35=DIRECTION('',(-5.128205128205E-1,0.E0,-8.584958483479E-1));
#36=AXIS2_PLACEMENT_3D('',#33,#34,#35);
#38=CARTESIAN_POINT('',(0.E0,-3.25E0,1.224646799147E-14));
#39=DIRECTION('',(0.E0,1.E0,0.E0));
#40=DIRECTION('',(-1.E0,0.E0,0.E0));
#41=AXIS2_PLACEMENT_3D('',#38,#39,#40);
#43=DIRECTION('',(0.E0,0.E0,-1.E0));
#44=VECTOR('',#43,5.E-1);
#45=CARTESIAN_POINT('',(-2.E0,-3.25E0,3.348133808557E0));
#46=LINE('',#45,#44);
#47=DIRECTION('',(1.E0,0.E0,0.E0));
#48=VECTOR('',#47,3.E0);
#49=CARTESIAN_POINT('',(-1.5E0,-3.25E0,2.348133808557E0));
#50=LINE('',#49,#48);
#51=DIRECTION('',(0.E0,0.E0,1.E0));
#52=VECTOR('',#51,5.E-1);
#53=CARTESIAN_POINT('',(2.E0,-3.25E0,2.848133808557E0));
#54=LINE('',#53,#52);
#55=CARTESIAN_POINT('',(0.E0,-3.25E0,1.224646799147E-14));
#56=DIRECTION('',(0.E0,1.E0,0.E0));
#57=DIRECTION('',(5.128205128205E-1,0.E0,8.584958483479E-1));
#58=AXIS2_PLACEMENT_3D('',#55,#56,#57);
#60=CARTESIAN_POINT('',(0.E0,-3.25E0,1.224646799147E-14));
#61=DIRECTION('',(0.E0,1.E0,0.E0));
#62=DIRECTION('',(1.E0,0.E0,0.E0));
#63=AXIS2_PLACEMENT_3D('',#60,#61,#62);
#65=DIRECTION('',(0.E0,-1.E0,0.E0));
#66=VECTOR('',#65,6.E0);
#67=CARTESIAN_POINT('',(2.85E0,-3.25E0,0.E0));
#68=LINE('',#67,#66);
#69=DIRECTION('',(0.E0,-1.E0,0.E0));
#70=VECTOR('',#69,6.E0);
#71=CARTESIAN_POINT('',(2.15E0,-3.25E0,0.E0));
#72=LINE('',#71,#70);
#73=CARTESIAN_POINT('',(2.5E0,-9.25E0,0.E0));
#74=DIRECTION('',(0.E0,-1.E0,0.E0));
#75=DIRECTION('',(1.E0,0.E0,0.E0));
#76=AXIS2_PLACEMENT_3D('',#73,#74,#75);
#78=CARTESIAN_POINT('',(2.5E0,-9.25E0,0.E0));
#79=DIRECTION('',(0.E0,-1.E0,0.E0));
#80=DIRECTION('',(-1.E0,0.E0,0.E0));
#81=AXIS2_PLACEMENT_3D('',#78,#79,#80);
#83=CARTESIAN_POINT('',(-2.5E0,-9.25E0,0.E0));
#84=DIRECTION('',(0.E0,-1.E0,0.E0));
#85=DIRECTION('',(1.E0,0.E0,0.E0));
#86=AXIS2_PLACEMENT_3D('',#83,#84,#85);
#88=CARTESIAN_POINT('',(-2.5E0,-9.25E0,0.E0));
#89=DIRECTION('',(0.E0,-1.E0,0.E0));
#90=DIRECTION('',(-1.E0,0.E0,0.E0));
#91=AXIS2_PLACEMENT_3D('',#88,#89,#90);
#93=DIRECTION('',(0.E0,-1.E0,0.E0));
#94=VECTOR('',#93,6.E0);
#95=CARTESIAN_POINT('',(-2.15E0,-3.25E0,0.E0));
#96=LINE('',#95,#94);
#97=DIRECTION('',(0.E0,-1.E0,0.E0));
#98=VECTOR('',#97,6.E0);
#99=CARTESIAN_POINT('',(-2.85E0,-3.25E0,0.E0));
#100=LINE('',#99,#98);
#101=DIRECTION('',(0.E0,1.E0,0.E0));
#102=VECTOR('',#101,1.E0);
#103=CARTESIAN_POINT('',(2.E0,-4.25E0,-2.848133808557E0));
#104=LINE('',#103,#102);
#105=DIRECTION('',(0.E0,-1.E0,0.E0));
#106=VECTOR('',#105,1.E0);
#107=CARTESIAN_POINT('',(2.E0,-3.25E0,-3.348133808557E0));
#108=LINE('',#107,#106);
#109=CARTESIAN_POINT('',(1.5E0,-3.25E0,-2.848133808557E0));
#110=DIRECTION('',(0.E0,1.E0,0.E0));
#111=DIRECTION('',(0.E0,0.E0,1.E0));
#112=AXIS2_PLACEMENT_3D('',#109,#110,#111);
#114=CARTESIAN_POINT('',(-1.5E0,-4.25E0,-2.848133808557E0));
#115=DIRECTION('',(0.E0,-1.E0,0.E0));
#116=DIRECTION('',(0.E0,0.E0,1.E0));
#117=AXIS2_PLACEMENT_3D('',#114,#115,#116);
#119=DIRECTION('',(-1.E0,0.E0,0.E0));
#120=VECTOR('',#119,3.E0);
#121=CARTESIAN_POINT('',(1.5E0,-4.25E0,-2.348133808557E0));
#122=LINE('',#121,#120);
#123=CARTESIAN_POINT('',(1.5E0,-4.25E0,-2.848133808557E0));
#124=DIRECTION('',(0.E0,-1.E0,0.E0));
#125=DIRECTION('',(1.E0,0.E0,0.E0));
#126=AXIS2_PLACEMENT_3D('',#123,#124,#125);
#128=DIRECTION('',(0.E0,0.E0,1.E0));
#129=VECTOR('',#128,5.E-1);
#130=CARTESIAN_POINT('',(2.E0,-4.25E0,-3.348133808557E0));
#131=LINE('',#130,#129);
#132=CARTESIAN_POINT('',(0.E0,-4.25E0,1.224646799147E-14));
#133=DIRECTION('',(0.E0,-1.E0,0.E0));
#134=DIRECTION('',(-5.128205128205E-1,0.E0,-8.584958483479E-1));
#135=AXIS2_PLACEMENT_3D('',#132,#133,#134);
#137=DIRECTION('',(0.E0,0.E0,-1.E0));
#138=VECTOR('',#137,5.E-1);
#139=CARTESIAN_POINT('',(-2.E0,-4.25E0,-2.848133808557E0));
#140=LINE('',#139,#138);
#141=CARTESIAN_POINT('',(-1.5E0,-4.25E0,2.848133808557E0));
#142=DIRECTION('',(0.E0,-1.E0,0.E0));
#143=DIRECTION('',(-1.E0,0.E0,0.E0));
#144=AXIS2_PLACEMENT_3D('',#141,#142,#143);
#146=DIRECTION('',(0.E0,0.E0,-1.E0));
#147=VECTOR('',#146,5.E-1);
#148=CARTESIAN_POINT('',(-2.E0,-4.25E0,3.348133808557E0));
#149=LINE('',#148,#147);
#150=CARTESIAN_POINT('',(0.E0,-4.25E0,1.224646799147E-14));
#151=DIRECTION('',(0.E0,-1.E0,0.E0));
#152=DIRECTION('',(5.128205128205E-1,0.E0,8.584958483479E-1));
#153=AXIS2_PLACEMENT_3D('',#150,#151,#152);
#155=DIRECTION('',(0.E0,0.E0,1.E0));
#156=VECTOR('',#155,5.E-1);
#157=CARTESIAN_POINT('',(2.E0,-4.25E0,2.848133808557E0));
#158=LINE('',#157,#156);
#159=CARTESIAN_POINT('',(1.5E0,-4.25E0,2.848133808557E0));
#160=DIRECTION('',(0.E0,-1.E0,0.E0));
#161=DIRECTION('',(0.E0,0.E0,-1.E0));
#162=AXIS2_PLACEMENT_3D('',#159,#160,#161);
#164=DIRECTION('',(1.E0,0.E0,0.E0));
#165=VECTOR('',#164,3.E0);
#166=CARTESIAN_POINT('',(-1.5E0,-4.25E0,2.348133808557E0));
#167=LINE('',#166,#165);
#168=CARTESIAN_POINT('',(-1.5E0,-3.25E0,-2.848133808557E0));
#169=DIRECTION('',(0.E0,1.E0,0.E0));
#170=DIRECTION('',(-1.E0,0.E0,0.E0));
#171=AXIS2_PLACEMENT_3D('',#168,#169,#170);
#173=DIRECTION('',(0.E0,1.E0,0.E0));
#174=VECTOR('',#173,1.E0);
#175=CARTESIAN_POINT('',(-1.5E0,-4.25E0,-2.348133808557E0));
#176=LINE('',#175,#174);
#177=DIRECTION('',(0.E0,1.E0,0.E0));
#178=VECTOR('',#177,1.E0);
#179=CARTESIAN_POINT('',(1.5E0,-4.25E0,-2.348133808557E0));
#180=LINE('',#179,#178);
#181=DIRECTION('',(0.E0,1.E0,0.E0));
#182=VECTOR('',#181,1.E0);
#183=CARTESIAN_POINT('',(-2.E0,-4.25E0,-2.848133808557E0));
#184=LINE('',#183,#182);
#185=DIRECTION('',(0.E0,-1.E0,0.E0));
#186=VECTOR('',#185,1.E0);
#187=CARTESIAN_POINT('',(-2.E0,-3.25E0,-3.348133808557E0));
#188=LINE('',#187,#186);
#189=DIRECTION('',(0.E0,1.E0,0.E0));
#190=VECTOR('',#189,6.5E0);
#191=CARTESIAN_POINT('',(3.9E0,-3.25E0,1.272408024314E-14));
#192=LINE('',#191,#190);
#193=DIRECTION('',(0.E0,-1.E0,0.E0));
#194=VECTOR('',#193,1.E0);
#195=CARTESIAN_POINT('',(2.E0,-3.25E0,3.348133808557E0));
#196=LINE('',#195,#194);
#197=DIRECTION('',(0.E0,1.E0,0.E0));
#198=VECTOR('',#197,6.5E0);
#199=CARTESIAN_POINT('',(-3.9E0,-3.25E0,1.176885573981E-14));
#200=LINE('',#199,#198);
#201=DIRECTION('',(0.E0,1.E0,0.E0));
#202=VECTOR('',#201,1.E0);
#203=CARTESIAN_POINT('',(2.E0,-4.25E0,2.848133808557E0));
#204=LINE('',#203,#202);
#205=CARTESIAN_POINT('',(1.5E0,-3.25E0,2.848133808557E0));
#206=DIRECTION('',(0.E0,1.E0,0.E0));
#207=DIRECTION('',(1.E0,0.E0,0.E0));
#208=AXIS2_PLACEMENT_3D('',#205,#206,#207);
#210=DIRECTION('',(0.E0,1.E0,0.E0));
#211=VECTOR('',#210,1.E0);
#212=CARTESIAN_POINT('',(-1.5E0,-4.25E0,2.348133808557E0));
#213=LINE('',#212,#211);
#214=DIRECTION('',(0.E0,1.E0,0.E0));
#215=VECTOR('',#214,1.E0);
#216=CARTESIAN_POINT('',(1.5E0,-4.25E0,2.348133808557E0));
#217=LINE('',#216,#215);
#218=CARTESIAN_POINT('',(-1.5E0,-3.25E0,2.848133808557E0));
#219=DIRECTION('',(0.E0,1.E0,0.E0));
#220=DIRECTION('',(0.E0,0.E0,-1.E0));
#221=AXIS2_PLACEMENT_3D('',#218,#219,#220);
#223=DIRECTION('',(0.E0,1.E0,0.E0));
#224=VECTOR('',#223,1.E0);
#225=CARTESIAN_POINT('',(-2.E0,-4.25E0,2.848133808557E0));
#226=LINE('',#225,#224);
#227=DIRECTION('',(0.E0,-1.E0,0.E0));
#228=VECTOR('',#227,1.E0);
#229=CARTESIAN_POINT('',(-2.E0,-3.25E0,3.348133808557E0));
#230=LINE('',#229,#228);
#231=CARTESIAN_POINT('',(0.E0,3.25E0,1.224646799147E-14));
#232=DIRECTION('',(0.E0,1.E0,0.E0));
#233=DIRECTION('',(1.E0,0.E0,0.E0));
#234=AXIS2_PLACEMENT_3D('',#231,#232,#233);
#236=CARTESIAN_POINT('',(0.E0,3.25E0,1.224646799147E-14));
#237=DIRECTION('',(0.E0,1.E0,0.E0));
#238=DIRECTION('',(-1.E0,0.E0,0.E0));
#239=AXIS2_PLACEMENT_3D('',#236,#237,#238);
#241=CARTESIAN_POINT('',(3.9E0,3.25E0,1.272408024314E-14));
#242=CARTESIAN_POINT('',(-3.9E0,3.25E0,1.129124348814E-14));
#243=VERTEX_POINT('',#241);
#244=VERTEX_POINT('',#242);
#245=CARTESIAN_POINT('',(3.9E0,-3.25E0,1.272408024314E-14));
#246=VERTEX_POINT('',#245);
#247=CARTESIAN_POINT('',(-3.9E0,-3.25E0,1.176885573981E-14));
#248=VERTEX_POINT('',#247);
#249=CARTESIAN_POINT('',(2.E0,-4.25E0,3.348133808557E0));
#250=CARTESIAN_POINT('',(-2.E0,-4.25E0,3.348133808557E0));
#251=VERTEX_POINT('',#249);
#252=VERTEX_POINT('',#250);
#253=CARTESIAN_POINT('',(-2.E0,-4.25E0,-3.348133808557E0));
#254=CARTESIAN_POINT('',(2.E0,-4.25E0,-3.348133808557E0));
#255=VERTEX_POINT('',#253);
#256=VERTEX_POINT('',#254);
#257=CARTESIAN_POINT('',(2.E0,-3.25E0,3.348133808557E0));
#258=VERTEX_POINT('',#257);
#259=CARTESIAN_POINT('',(-2.E0,-3.25E0,3.348133808557E0));
#260=VERTEX_POINT('',#259);
#261=CARTESIAN_POINT('',(2.E0,-3.25E0,-3.348133808557E0));
#262=VERTEX_POINT('',#261);
#263=CARTESIAN_POINT('',(-2.E0,-3.25E0,-3.348133808557E0));
#264=VERTEX_POINT('',#263);
#265=CARTESIAN_POINT('',(-1.5E0,-4.25E0,-2.348133808557E0));
#266=CARTESIAN_POINT('',(-1.5E0,-3.25E0,-2.348133808557E0));
#267=VERTEX_POINT('',#265);
#268=VERTEX_POINT('',#266);
#269=CARTESIAN_POINT('',(-2.E0,-4.25E0,-2.848133808557E0));
#270=VERTEX_POINT('',#269);
#271=CARTESIAN_POINT('',(-2.E0,-3.25E0,-2.848133808557E0));
#272=VERTEX_POINT('',#271);
#273=CARTESIAN_POINT('',(2.E0,-4.25E0,-2.848133808557E0));
#274=CARTESIAN_POINT('',(2.E0,-3.25E0,-2.848133808557E0));
#275=VERTEX_POINT('',#273);
#276=VERTEX_POINT('',#274);
#277=CARTESIAN_POINT('',(1.5E0,-4.25E0,-2.348133808557E0));
#278=VERTEX_POINT('',#277);
#279=CARTESIAN_POINT('',(1.5E0,-3.25E0,-2.348133808557E0));
#280=VERTEX_POINT('',#279);
#281=CARTESIAN_POINT('',(-2.E0,-4.25E0,2.848133808557E0));
#282=CARTESIAN_POINT('',(-2.E0,-3.25E0,2.848133808557E0));
#283=VERTEX_POINT('',#281);
#284=VERTEX_POINT('',#282);
#285=CARTESIAN_POINT('',(-1.5E0,-4.25E0,2.348133808557E0));
#286=VERTEX_POINT('',#285);
#287=CARTESIAN_POINT('',(-1.5E0,-3.25E0,2.348133808557E0));
#288=VERTEX_POINT('',#287);
#289=CARTESIAN_POINT('',(1.5E0,-4.25E0,2.348133808557E0));
#290=CARTESIAN_POINT('',(1.5E0,-3.25E0,2.348133808557E0));
#291=VERTEX_POINT('',#289);
#292=VERTEX_POINT('',#290);
#293=CARTESIAN_POINT('',(2.E0,-4.25E0,2.848133808557E0));
#294=VERTEX_POINT('',#293);
#295=CARTESIAN_POINT('',(2.E0,-3.25E0,2.848133808557E0));
#296=VERTEX_POINT('',#295);
#297=CARTESIAN_POINT('',(2.85E0,-9.25E0,0.E0));
#298=CARTESIAN_POINT('',(2.15E0,-9.25E0,0.E0));
#299=VERTEX_POINT('',#297);
#300=VERTEX_POINT('',#298);
#301=CARTESIAN_POINT('',(-2.15E0,-9.25E0,0.E0));
#302=CARTESIAN_POINT('',(-2.85E0,-9.25E0,0.E0));
#303=VERTEX_POINT('',#301);
#304=VERTEX_POINT('',#302);
#305=CARTESIAN_POINT('',(2.85E0,-3.25E0,0.E0));
#306=CARTESIAN_POINT('',(2.15E0,-3.25E0,0.E0));
#307=VERTEX_POINT('',#305);
#308=VERTEX_POINT('',#306);
#309=CARTESIAN_POINT('',(-2.15E0,-3.25E0,0.E0));
#310=CARTESIAN_POINT('',(-2.85E0,-3.25E0,0.E0));
#311=VERTEX_POINT('',#309);
#312=VERTEX_POINT('',#310);
#313=CARTESIAN_POINT('',(0.E0,-3.25E0,0.E0));
#314=DIRECTION('',(0.E0,1.E0,0.E0));
#315=DIRECTION('',(1.E0,0.E0,0.E0));
#316=AXIS2_PLACEMENT_3D('',#313,#314,#315);
#317=PLANE('',#316);
#319=ORIENTED_EDGE('',*,*,#318,.T.);
#321=ORIENTED_EDGE('',*,*,#320,.F.);
#323=ORIENTED_EDGE('',*,*,#322,.T.);
#325=ORIENTED_EDGE('',*,*,#324,.F.);
#327=ORIENTED_EDGE('',*,*,#326,.T.);
#329=ORIENTED_EDGE('',*,*,#328,.T.);
#331=ORIENTED_EDGE('',*,*,#330,.T.);
#333=ORIENTED_EDGE('',*,*,#332,.T.);
#335=ORIENTED_EDGE('',*,*,#334,.F.);
#337=ORIENTED_EDGE('',*,*,#336,.T.);
#339=ORIENTED_EDGE('',*,*,#338,.F.);
#341=ORIENTED_EDGE('',*,*,#340,.T.);
#343=ORIENTED_EDGE('',*,*,#342,.T.);
#345=ORIENTED_EDGE('',*,*,#344,.T.);
#346=EDGE_LOOP('',(#319,#321,#323,#325,#327,#329,#331,#333,#335,#337,#339,#341,
#343,#345));
#347=FACE_OUTER_BOUND('',#346,.F.);
#349=ORIENTED_EDGE('',*,*,#348,.T.);
#351=ORIENTED_EDGE('',*,*,#350,.T.);
#352=EDGE_LOOP('',(#349,#351));
#353=FACE_BOUND('',#352,.F.);
#355=ORIENTED_EDGE('',*,*,#354,.T.);
#357=ORIENTED_EDGE('',*,*,#356,.T.);
#358=EDGE_LOOP('',(#355,#357));
#359=FACE_BOUND('',#358,.F.);
#361=CARTESIAN_POINT('',(2.5E0,-3.25E0,0.E0));
#362=DIRECTION('',(0.E0,-1.E0,0.E0));
#363=DIRECTION('',(1.E0,0.E0,0.E0));
#364=AXIS2_PLACEMENT_3D('',#361,#362,#363);
#365=CYLINDRICAL_SURFACE('',#364,3.5E-1);
#366=ORIENTED_EDGE('',*,*,#354,.F.);
#368=ORIENTED_EDGE('',*,*,#367,.T.);
#370=ORIENTED_EDGE('',*,*,#369,.T.);
#372=ORIENTED_EDGE('',*,*,#371,.F.);
#373=EDGE_LOOP('',(#366,#368,#370,#372));
#374=FACE_OUTER_BOUND('',#373,.F.);
#376=CARTESIAN_POINT('',(2.5E0,-3.25E0,0.E0));
#377=DIRECTION('',(0.E0,-1.E0,0.E0));
#378=DIRECTION('',(1.E0,0.E0,0.E0));
#379=AXIS2_PLACEMENT_3D('',#376,#377,#378);
#380=CYLINDRICAL_SURFACE('',#379,3.5E-1);
#381=ORIENTED_EDGE('',*,*,#356,.F.);
#382=ORIENTED_EDGE('',*,*,#371,.T.);
#384=ORIENTED_EDGE('',*,*,#383,.T.);
#385=ORIENTED_EDGE('',*,*,#367,.F.);
#386=EDGE_LOOP('',(#381,#382,#384,#385));
#387=FACE_OUTER_BOUND('',#386,.F.);
#389=CARTESIAN_POINT('',(0.E0,-9.25E0,0.E0));
#390=DIRECTION('',(0.E0,-1.E0,0.E0));
#391=DIRECTION('',(1.E0,0.E0,0.E0));
#392=AXIS2_PLACEMENT_3D('',#389,#390,#391);
#393=PLANE('',#392);
#394=ORIENTED_EDGE('',*,*,#369,.F.);
#395=ORIENTED_EDGE('',*,*,#383,.F.);
#396=EDGE_LOOP('',(#394,#395));
#397=FACE_OUTER_BOUND('',#396,.F.);
#399=CARTESIAN_POINT('',(0.E0,-9.25E0,0.E0));
#400=DIRECTION('',(0.E0,-1.E0,0.E0));
#401=DIRECTION('',(1.E0,0.E0,0.E0));
#402=AXIS2_PLACEMENT_3D('',#399,#400,#401);
#403=PLANE('',#402);
#405=ORIENTED_EDGE('',*,*,#404,.F.);
#407=ORIENTED_EDGE('',*,*,#406,.F.);
#408=EDGE_LOOP('',(#405,#407));
#409=FACE_OUTER_BOUND('',#408,.F.);
#411=CARTESIAN_POINT('',(-2.5E0,-3.25E0,0.E0));
#412=DIRECTION('',(0.E0,-1.E0,0.E0));
#413=DIRECTION('',(1.E0,0.E0,0.E0));
#414=AXIS2_PLACEMENT_3D('',#411,#412,#413);
#415=CYLINDRICAL_SURFACE('',#414,3.5E-1);
#416=ORIENTED_EDGE('',*,*,#348,.F.);
#418=ORIENTED_EDGE('',*,*,#417,.T.);
#419=ORIENTED_EDGE('',*,*,#404,.T.);
#421=ORIENTED_EDGE('',*,*,#420,.F.);
#422=EDGE_LOOP('',(#416,#418,#419,#421));
#423=FACE_OUTER_BOUND('',#422,.F.);
#425=CARTESIAN_POINT('',(-2.5E0,-3.25E0,0.E0));
#426=DIRECTION('',(0.E0,-1.E0,0.E0));
#427=DIRECTION('',(1.E0,0.E0,0.E0));
#428=AXIS2_PLACEMENT_3D('',#425,#426,#427);
#429=CYLINDRICAL_SURFACE('',#428,3.5E-1);
#430=ORIENTED_EDGE('',*,*,#350,.F.);
#431=ORIENTED_EDGE('',*,*,#420,.T.);
#432=ORIENTED_EDGE('',*,*,#406,.T.);
#433=ORIENTED_EDGE('',*,*,#417,.F.);
#434=EDGE_LOOP('',(#430,#431,#432,#433));
#435=FACE_OUTER_BOUND('',#434,.F.);
#437=CARTESIAN_POINT('',(2.E0,-3.25E0,-3.348133808557E0));
#438=DIRECTION('',(1.E0,0.E0,0.E0));
#439=DIRECTION('',(0.E0,0.E0,1.E0));
#440=AXIS2_PLACEMENT_3D('',#437,#438,#439);
#441=PLANE('',#440);
#443=ORIENTED_EDGE('',*,*,#442,.T.);
#444=ORIENTED_EDGE('',*,*,#318,.F.);
#446=ORIENTED_EDGE('',*,*,#445,.T.);
#448=ORIENTED_EDGE('',*,*,#447,.T.);
#449=EDGE_LOOP('',(#443,#444,#446,#448));
#450=FACE_OUTER_BOUND('',#449,.F.);
#452=CARTESIAN_POINT('',(1.5E0,-2.551382930449E1,-2.848133808557E0));
#453=DIRECTION('',(0.E0,1.E0,0.E0));
#454=DIRECTION('',(0.E0,0.E0,1.E0));
#455=AXIS2_PLACEMENT_3D('',#452,#453,#454);
#456=CYLINDRICAL_SURFACE('',#455,5.E-1);
#457=ORIENTED_EDGE('',*,*,#442,.F.);
#459=ORIENTED_EDGE('',*,*,#458,.T.);
#461=ORIENTED_EDGE('',*,*,#460,.T.);
#462=ORIENTED_EDGE('',*,*,#320,.T.);
#463=EDGE_LOOP('',(#457,#459,#461,#462));
#464=FACE_OUTER_BOUND('',#463,.F.);
#466=CARTESIAN_POINT('',(0.E0,-4.25E0,0.E0));
#467=DIRECTION('',(0.E0,-1.E0,0.E0));
#468=DIRECTION('',(1.E0,0.E0,0.E0));
#469=AXIS2_PLACEMENT_3D('',#466,#467,#468);
#470=PLANE('',#469);
#472=ORIENTED_EDGE('',*,*,#471,.F.);
#474=ORIENTED_EDGE('',*,*,#473,.F.);
#475=ORIENTED_EDGE('',*,*,#458,.F.);
#476=ORIENTED_EDGE('',*,*,#447,.F.);
#478=ORIENTED_EDGE('',*,*,#477,.F.);
#480=ORIENTED_EDGE('',*,*,#479,.F.);
#481=EDGE_LOOP('',(#472,#474,#475,#476,#478,#480));
#482=FACE_OUTER_BOUND('',#481,.F.);
#484=CARTESIAN_POINT('',(0.E0,-4.25E0,0.E0));
#485=DIRECTION('',(0.E0,-1.E0,0.E0));
#486=DIRECTION('',(1.E0,0.E0,0.E0));
#487=AXIS2_PLACEMENT_3D('',#484,#485,#486);
#488=PLANE('',#487);
#490=ORIENTED_EDGE('',*,*,#489,.F.);
#492=ORIENTED_EDGE('',*,*,#491,.F.);
#494=ORIENTED_EDGE('',*,*,#493,.F.);
#496=ORIENTED_EDGE('',*,*,#495,.F.);
#498=ORIENTED_EDGE('',*,*,#497,.F.);
#500=ORIENTED_EDGE('',*,*,#499,.F.);
#501=EDGE_LOOP('',(#490,#492,#494,#496,#498,#500));
#502=FACE_OUTER_BOUND('',#501,.F.);
#504=CARTESIAN_POINT('',(-1.5E0,-2.5545E1,-2.848133808557E0));
#505=DIRECTION('',(0.E0,1.E0,0.E0));
#506=DIRECTION('',(-1.E0,0.E0,0.E0));
#507=AXIS2_PLACEMENT_3D('',#504,#505,#506);
#508=CYLINDRICAL_SURFACE('',#507,5.E-1);
#510=ORIENTED_EDGE('',*,*,#509,.F.);
#511=ORIENTED_EDGE('',*,*,#471,.T.);
#513=ORIENTED_EDGE('',*,*,#512,.T.);
#514=ORIENTED_EDGE('',*,*,#324,.T.);
#515=EDGE_LOOP('',(#510,#511,#513,#514));
#516=FACE_OUTER_BOUND('',#515,.F.);
#518=CARTESIAN_POINT('',(2.E0,-3.25E0,-2.348133808557E0));
#519=DIRECTION('',(0.E0,0.E0,1.E0));
#520=DIRECTION('',(-1.E0,0.E0,0.E0));
#521=AXIS2_PLACEMENT_3D('',#518,#519,#520);
#522=PLANE('',#521);
#523=ORIENTED_EDGE('',*,*,#509,.T.);
#524=ORIENTED_EDGE('',*,*,#322,.F.);
#525=ORIENTED_EDGE('',*,*,#460,.F.);
#526=ORIENTED_EDGE('',*,*,#473,.T.);
#527=EDGE_LOOP('',(#523,#524,#525,#526));
#528=FACE_OUTER_BOUND('',#527,.F.);
#530=CARTESIAN_POINT('',(-2.E0,-3.25E0,-2.348133808557E0));
#531=DIRECTION('',(-1.E0,0.E0,0.E0));
#532=DIRECTION('',(0.E0,0.E0,-1.E0));
#533=AXIS2_PLACEMENT_3D('',#530,#531,#532);
#534=PLANE('',#533);
#535=ORIENTED_EDGE('',*,*,#512,.F.);
#536=ORIENTED_EDGE('',*,*,#479,.T.);
#538=ORIENTED_EDGE('',*,*,#537,.F.);
#539=ORIENTED_EDGE('',*,*,#326,.F.);
#540=EDGE_LOOP('',(#535,#536,#538,#539));
#541=FACE_OUTER_BOUND('',#540,.F.);
#543=CARTESIAN_POINT('',(0.E0,-3.25E0,1.224646799147E-14));
#544=DIRECTION('',(0.E0,1.E0,0.E0));
#545=DIRECTION('',(1.E0,0.E0,0.E0));
#546=AXIS2_PLACEMENT_3D('',#543,#544,#545);
#547=CYLINDRICAL_SURFACE('',#546,3.9E0);
#548=ORIENTED_EDGE('',*,*,#328,.F.);
#549=ORIENTED_EDGE('',*,*,#537,.T.);
#550=ORIENTED_EDGE('',*,*,#477,.T.);
#551=ORIENTED_EDGE('',*,*,#445,.F.);
#552=ORIENTED_EDGE('',*,*,#344,.F.);
#554=ORIENTED_EDGE('',*,*,#553,.T.);
#556=ORIENTED_EDGE('',*,*,#555,.T.);
#558=ORIENTED_EDGE('',*,*,#557,.F.);
#559=EDGE_LOOP('',(#548,#549,#550,#551,#552,#554,#556,#558));
#560=FACE_OUTER_BOUND('',#559,.F.);
#562=CARTESIAN_POINT('',(0.E0,-3.25E0,1.224646799147E-14));
#563=DIRECTION('',(0.E0,1.E0,0.E0));
#564=DIRECTION('',(1.E0,0.E0,0.E0));
#565=AXIS2_PLACEMENT_3D('',#562,#563,#564);
#566=CYLINDRICAL_SURFACE('',#565,3.9E0);
#567=ORIENTED_EDGE('',*,*,#342,.F.);
#569=ORIENTED_EDGE('',*,*,#568,.T.);
#570=ORIENTED_EDGE('',*,*,#493,.T.);
#572=ORIENTED_EDGE('',*,*,#571,.F.);
#573=ORIENTED_EDGE('',*,*,#330,.F.);
#574=ORIENTED_EDGE('',*,*,#557,.T.);
#576=ORIENTED_EDGE('',*,*,#575,.T.);
#577=ORIENTED_EDGE('',*,*,#553,.F.);
#578=EDGE_LOOP('',(#567,#569,#570,#572,#573,#574,#576,#577));
#579=FACE_OUTER_BOUND('',#578,.F.);
#581=CARTESIAN_POINT('',(2.E0,-3.25E0,2.348133808557E0));
#582=DIRECTION('',(1.E0,0.E0,0.E0));
#583=DIRECTION('',(0.E0,0.E0,1.E0));
#584=AXIS2_PLACEMENT_3D('',#581,#582,#583);
#585=PLANE('',#584);
#587=ORIENTED_EDGE('',*,*,#586,.F.);
#588=ORIENTED_EDGE('',*,*,#495,.T.);
#589=ORIENTED_EDGE('',*,*,#568,.F.);
#590=ORIENTED_EDGE('',*,*,#340,.F.);
#591=EDGE_LOOP('',(#587,#588,#589,#590));
#592=FACE_OUTER_BOUND('',#591,.F.);
#594=CARTESIAN_POINT('',(1.5E0,-2.527157222316E1,2.848133808557E0));
#595=DIRECTION('',(0.E0,1.E0,0.E0));
#596=DIRECTION('',(1.E0,0.E0,0.E0));
#597=AXIS2_PLACEMENT_3D('',#594,#595,#596);
#598=CYLINDRICAL_SURFACE('',#597,5.E-1);
#600=ORIENTED_EDGE('',*,*,#599,.F.);
#601=ORIENTED_EDGE('',*,*,#497,.T.);
#602=ORIENTED_EDGE('',*,*,#586,.T.);
#603=ORIENTED_EDGE('',*,*,#338,.T.);
#604=EDGE_LOOP('',(#600,#601,#602,#603));
#605=FACE_OUTER_BOUND('',#604,.F.);
#607=CARTESIAN_POINT('',(-2.E0,-3.25E0,2.348133808557E0));
#608=DIRECTION('',(0.E0,0.E0,-1.E0));
#609=DIRECTION('',(1.E0,0.E0,0.E0));
#610=AXIS2_PLACEMENT_3D('',#607,#608,#609);
#611=PLANE('',#610);
#613=ORIENTED_EDGE('',*,*,#612,.F.);
#614=ORIENTED_EDGE('',*,*,#499,.T.);
#615=ORIENTED_EDGE('',*,*,#599,.T.);
#616=ORIENTED_EDGE('',*,*,#336,.F.);
#617=EDGE_LOOP('',(#613,#614,#615,#616));
#618=FACE_OUTER_BOUND('',#617,.F.);
#620=CARTESIAN_POINT('',(-1.5E0,-2.364123877658E1,2.848133808557E0));
#621=DIRECTION('',(0.E0,1.E0,0.E0));
#622=DIRECTION('',(0.E0,0.E0,-1.E0));
#623=AXIS2_PLACEMENT_3D('',#620,#621,#622);
#624=CYLINDRICAL_SURFACE('',#623,5.E-1);
#626=ORIENTED_EDGE('',*,*,#625,.F.);
#627=ORIENTED_EDGE('',*,*,#489,.T.);
#628=ORIENTED_EDGE('',*,*,#612,.T.);
#629=ORIENTED_EDGE('',*,*,#334,.T.);
#630=EDGE_LOOP('',(#626,#627,#628,#629));
#631=FACE_OUTER_BOUND('',#630,.F.);
#633=CARTESIAN_POINT('',(-2.E0,-3.25E0,3.348133808557E0));
#634=DIRECTION('',(-1.E0,0.E0,0.E0));
#635=DIRECTION('',(0.E0,0.E0,-1.E0));
#636=AXIS2_PLACEMENT_3D('',#633,#634,#635);
#637=PLANE('',#636);
#638=ORIENTED_EDGE('',*,*,#625,.T.);
#639=ORIENTED_EDGE('',*,*,#332,.F.);
#640=ORIENTED_EDGE('',*,*,#571,.T.);
#641=ORIENTED_EDGE('',*,*,#491,.T.);
#642=EDGE_LOOP('',(#638,#639,#640,#641));
#643=FACE_OUTER_BOUND('',#642,.F.);
#645=CARTESIAN_POINT('',(0.E0,3.25E0,0.E0));
#646=DIRECTION('',(0.E0,1.E0,0.E0));
#647=DIRECTION('',(1.E0,0.E0,0.E0));
#648=AXIS2_PLACEMENT_3D('',#645,#646,#647);
#649=PLANE('',#648);
#650=ORIENTED_EDGE('',*,*,#555,.F.);
#651=ORIENTED_EDGE('',*,*,#575,.F.);
#652=EDGE_LOOP('',(#650,#651));
#653=FACE_OUTER_BOUND('',#652,.F.);
#655=CLOSED_SHELL('',(#360,#375,#388,#398,#410,#424,#436,#451,#465,#483,#503,
#517,#529,#542,#561,#580,#593,#606,#619,#632,#644,#654));
#656=MANIFOLD_SOLID_BREP('',#655);
#658=DIMENSIONAL_EXPONENTS(0.E0,0.E0,0.E0,0.E0,0.E0,0.E0,0.E0);
#660=PLANE_ANGLE_MEASURE_WITH_UNIT(PLANE_ANGLE_MEASURE(1.745329251994E-2),#659);
#661=(CONVERSION_BASED_UNIT('DEGREE',#660)NAMED_UNIT(*)PLANE_ANGLE_UNIT());
#663=UNCERTAINTY_MEASURE_WITH_UNIT(LENGTH_MEASURE(6.946582043752E-4),#657,
'closure',
'Maximum model space distance between geometric entities at asserted connectivities');
#666=APPLICATION_CONTEXT(
'CONFIGURATION CONTROLLED 3D DESIGNS OF MECHANICAL PARTS AND ASSEMBLIES');
#667=APPLICATION_PROTOCOL_DEFINITION('international standard',
'config_control_design',1994,#666);
#668=DESIGN_CONTEXT('',#666,'design');
#669=MECHANICAL_CONTEXT('',#666,'mechanical');
#670=PRODUCT('RL875S','RL875S','NOT SPECIFIED',(#669));
#671=PRODUCT_DEFINITION_FORMATION_WITH_SPECIFIED_SOURCE('2','LAST_VERSION',#670,
.MADE.);
#675=PRODUCT_CATEGORY('part','');
#676=PRODUCT_RELATED_PRODUCT_CATEGORY('detail','',(#670));
#677=PRODUCT_CATEGORY_RELATIONSHIP('','',#675,#676);
#678=SECURITY_CLASSIFICATION_LEVEL('unclassified');
#679=SECURITY_CLASSIFICATION('','',#678);
#680=CC_DESIGN_SECURITY_CLASSIFICATION(#679,(#671));
#681=APPROVAL_STATUS('approved');
#682=APPROVAL(#681,'');
#683=CC_DESIGN_APPROVAL(#682,(#679,#671,#672));
#684=CALENDAR_DATE(112,10,8);
#685=COORDINATED_UNIVERSAL_TIME_OFFSET(7,0,.BEHIND.);
#686=LOCAL_TIME(10,57,5.7E1,#685);
#687=DATE_AND_TIME(#684,#686);
#688=APPROVAL_DATE_TIME(#687,#682);
#689=DATE_TIME_ROLE('creation_date');
#690=CC_DESIGN_DATE_AND_TIME_ASSIGNMENT(#687,#689,(#672));
#691=DATE_TIME_ROLE('classification_date');
#692=CC_DESIGN_DATE_AND_TIME_ASSIGNMENT(#687,#691,(#679));
#693=PERSON('UNSPECIFIED','UNSPECIFIED',$,$,$,$);
#694=ORGANIZATION('UNSPECIFIED','UNSPECIFIED','UNSPECIFIED');
#695=PERSON_AND_ORGANIZATION(#693,#694);
#696=APPROVAL_ROLE('approver');
#697=APPROVAL_PERSON_ORGANIZATION(#695,#682,#696);
#698=PERSON_AND_ORGANIZATION_ROLE('creator');
#699=CC_DESIGN_PERSON_AND_ORGANIZATION_ASSIGNMENT(#695,#698,(#671,#672));
#700=PERSON_AND_ORGANIZATION_ROLE('design_supplier');
#701=CC_DESIGN_PERSON_AND_ORGANIZATION_ASSIGNMENT(#695,#700,(#671));
#702=PERSON_AND_ORGANIZATION_ROLE('classification_officer');
#703=CC_DESIGN_PERSON_AND_ORGANIZATION_ASSIGNMENT(#695,#702,(#679));
#704=PERSON_AND_ORGANIZATION_ROLE('design_owner');
#705=CC_DESIGN_PERSON_AND_ORGANIZATION_ASSIGNMENT(#695,#704,(#670));
#5=CIRCLE('',#4,3.5E-1);
#10=CIRCLE('',#9,3.5E-1);
#15=CIRCLE('',#14,3.5E-1);
#20=CIRCLE('',#19,3.5E-1);
#37=CIRCLE('',#36,3.9E0);
#42=CIRCLE('',#41,3.9E0);
#59=CIRCLE('',#58,3.9E0);
#64=CIRCLE('',#63,3.9E0);
#77=CIRCLE('',#76,3.5E-1);
#82=CIRCLE('',#81,3.5E-1);
#87=CIRCLE('',#86,3.5E-1);
#92=CIRCLE('',#91,3.5E-1);
#113=CIRCLE('',#112,5.E-1);
#118=CIRCLE('',#117,5.E-1);
#127=CIRCLE('',#126,5.E-1);
#136=CIRCLE('',#135,3.9E0);
#145=CIRCLE('',#144,5.E-1);
#154=CIRCLE('',#153,3.9E0);
#163=CIRCLE('',#162,5.E-1);
#172=CIRCLE('',#171,5.E-1);
#209=CIRCLE('',#208,5.E-1);
#222=CIRCLE('',#221,5.E-1);
#235=CIRCLE('',#234,3.9E0);
#240=CIRCLE('',#239,3.9E0);
#318=EDGE_CURVE('',#262,#276,#24,.T.);
#320=EDGE_CURVE('',#280,#276,#113,.T.);
#322=EDGE_CURVE('',#280,#268,#28,.T.);
#324=EDGE_CURVE('',#272,#268,#172,.T.);
#326=EDGE_CURVE('',#272,#264,#32,.T.);
#328=EDGE_CURVE('',#264,#248,#37,.T.);
#330=EDGE_CURVE('',#248,#260,#42,.T.);
#332=EDGE_CURVE('',#260,#284,#46,.T.);
#334=EDGE_CURVE('',#288,#284,#222,.T.);
#336=EDGE_CURVE('',#288,#292,#50,.T.);
#338=EDGE_CURVE('',#296,#292,#209,.T.);
#340=EDGE_CURVE('',#296,#258,#54,.T.);
#342=EDGE_CURVE('',#258,#246,#59,.T.);
#344=EDGE_CURVE('',#246,#262,#64,.T.);
#348=EDGE_CURVE('',#311,#312,#15,.T.);
#350=EDGE_CURVE('',#312,#311,#20,.T.);
#354=EDGE_CURVE('',#307,#308,#5,.T.);
#356=EDGE_CURVE('',#308,#307,#10,.T.);
#360=ADVANCED_FACE('',(#347,#353,#359),#317,.F.);
#367=EDGE_CURVE('',#307,#299,#68,.T.);
#369=EDGE_CURVE('',#299,#300,#77,.T.);
#371=EDGE_CURVE('',#308,#300,#72,.T.);
#375=ADVANCED_FACE('',(#374),#365,.T.);
#383=EDGE_CURVE('',#300,#299,#82,.T.);
#388=ADVANCED_FACE('',(#387),#380,.T.);
#398=ADVANCED_FACE('',(#397),#393,.T.);
#404=EDGE_CURVE('',#303,#304,#87,.T.);
#406=EDGE_CURVE('',#304,#303,#92,.T.);
#410=ADVANCED_FACE('',(#409),#403,.T.);
#417=EDGE_CURVE('',#311,#303,#96,.T.);
#420=EDGE_CURVE('',#312,#304,#100,.T.);
#424=ADVANCED_FACE('',(#423),#415,.T.);
#436=ADVANCED_FACE('',(#435),#429,.T.);
#442=EDGE_CURVE('',#275,#276,#104,.T.);
#445=EDGE_CURVE('',#262,#256,#108,.T.);
#447=EDGE_CURVE('',#256,#275,#131,.T.);
#451=ADVANCED_FACE('',(#450),#441,.T.);
#458=EDGE_CURVE('',#275,#278,#127,.T.);
#460=EDGE_CURVE('',#278,#280,#180,.T.);
#465=ADVANCED_FACE('',(#464),#456,.T.);
#471=EDGE_CURVE('',#267,#270,#118,.T.);
#473=EDGE_CURVE('',#278,#267,#122,.T.);
#477=EDGE_CURVE('',#255,#256,#136,.T.);
#479=EDGE_CURVE('',#270,#255,#140,.T.);
#483=ADVANCED_FACE('',(#482),#470,.T.);
#489=EDGE_CURVE('',#283,#286,#145,.T.);
#491=EDGE_CURVE('',#252,#283,#149,.T.);
#493=EDGE_CURVE('',#251,#252,#154,.T.);
#495=EDGE_CURVE('',#294,#251,#158,.T.);
#497=EDGE_CURVE('',#291,#294,#163,.T.);
#499=EDGE_CURVE('',#286,#291,#167,.T.);
#503=ADVANCED_FACE('',(#502),#488,.T.);
#509=EDGE_CURVE('',#267,#268,#176,.T.);
#512=EDGE_CURVE('',#270,#272,#184,.T.);
#517=ADVANCED_FACE('',(#516),#508,.T.);
#529=ADVANCED_FACE('',(#528),#522,.T.);
#537=EDGE_CURVE('',#264,#255,#188,.T.);
#542=ADVANCED_FACE('',(#541),#534,.T.);
#553=EDGE_CURVE('',#246,#243,#192,.T.);
#555=EDGE_CURVE('',#243,#244,#235,.T.);
#557=EDGE_CURVE('',#248,#244,#200,.T.);
#561=ADVANCED_FACE('',(#560),#547,.T.);
#568=EDGE_CURVE('',#258,#251,#196,.T.);
#571=EDGE_CURVE('',#260,#252,#230,.T.);
#575=EDGE_CURVE('',#244,#243,#240,.T.);
#580=ADVANCED_FACE('',(#579),#566,.T.);
#586=EDGE_CURVE('',#294,#296,#204,.T.);
#593=ADVANCED_FACE('',(#592),#585,.T.);
#599=EDGE_CURVE('',#291,#292,#217,.T.);
#606=ADVANCED_FACE('',(#605),#598,.T.);
#612=EDGE_CURVE('',#286,#288,#213,.T.);
#619=ADVANCED_FACE('',(#618),#611,.T.);
#625=EDGE_CURVE('',#283,#284,#226,.T.);
#632=ADVANCED_FACE('',(#631),#624,.T.);
#644=ADVANCED_FACE('',(#643),#637,.T.);
#654=ADVANCED_FACE('',(#653),#649,.T.);
#657=(LENGTH_UNIT()NAMED_UNIT(*)SI_UNIT(.MILLI.,.METRE.));
#659=(NAMED_UNIT(*)PLANE_ANGLE_UNIT()SI_UNIT($,.RADIAN.));
#662=(NAMED_UNIT(*)SI_UNIT($,.STERADIAN.)SOLID_ANGLE_UNIT());
#664=(GEOMETRIC_REPRESENTATION_CONTEXT(3)GLOBAL_UNCERTAINTY_ASSIGNED_CONTEXT((
#663))GLOBAL_UNIT_ASSIGNED_CONTEXT((#657,#661,#662))REPRESENTATION_CONTEXT
('ID1','3'));
#665=ADVANCED_BREP_SHAPE_REPRESENTATION('',(#656),#664);
#672=PRODUCT_DEFINITION('design','',#671,#668);
#673=PRODUCT_DEFINITION_SHAPE('','SHAPE FOR RL875S.',#672);
#674=SHAPE_DEFINITION_REPRESENTATION(#673,#665);
ENDSEC;
END-ISO-10303-21;
