ISO-10303-21;
HEADER;
FILE_DESCRIPTION((''),'2;1');
FILE_NAME('FSR1013','2012-07-13T',('ryans'),('Bourns, Inc.'),
'PRO/ENGINEER BY PARAMETRIC TECHNOLOGY CORPORATION, 2010100',
'PRO/ENGINEER BY PARAMETRIC TECHNOLOGY CORPORATION, 2010100','');
FILE_SCHEMA(('CONFIG_CONTROL_DESIGN'));
ENDSEC;
DATA;
#1=CARTESIAN_POINT('',(0.E0,1.35E1,0.E0));
#2=DIRECTION('',(0.E0,1.E0,0.E0));
#3=DIRECTION('',(1.E0,0.E0,0.E0));
#4=AXIS2_PLACEMENT_3D('',#1,#2,#3);
#6=CARTESIAN_POINT('',(0.E0,1.35E1,0.E0));
#7=DIRECTION('',(0.E0,1.E0,0.E0));
#8=DIRECTION('',(-1.E0,0.E0,0.E0));
#9=AXIS2_PLACEMENT_3D('',#6,#7,#8);
#11=CARTESIAN_POINT('',(4.7E0,1.32E1,0.E0));
#12=DIRECTION('',(0.E0,0.E0,-1.E0));
#13=DIRECTION('',(0.E0,1.E0,0.E0));
#14=AXIS2_PLACEMENT_3D('',#11,#12,#13);
#16=CARTESIAN_POINT('',(-4.7E0,1.32E1,0.E0));
#17=DIRECTION('',(0.E0,0.E0,1.E0));
#18=DIRECTION('',(0.E0,1.E0,0.E0));
#19=AXIS2_PLACEMENT_3D('',#16,#17,#18);
#21=CARTESIAN_POINT('',(0.E0,1.32E1,0.E0));
#22=DIRECTION('',(0.E0,1.E0,0.E0));
#23=DIRECTION('',(-1.E0,0.E0,0.E0));
#24=AXIS2_PLACEMENT_3D('',#21,#22,#23);
#26=CARTESIAN_POINT('',(0.E0,3.E0,0.E0));
#27=DIRECTION('',(0.E0,1.E0,0.E0));
#28=DIRECTION('',(-1.E0,0.E0,0.E0));
#29=AXIS2_PLACEMENT_3D('',#26,#27,#28);
#31=DIRECTION('',(0.E0,1.E0,-4.224213397991E-14));
#32=VECTOR('',#31,1.02E1);
#33=CARTESIAN_POINT('',(-5.E0,3.E0,0.E0));
#34=LINE('',#33,#32);
#35=CARTESIAN_POINT('',(0.E0,1.32E1,0.E0));
#36=DIRECTION('',(0.E0,1.E0,0.E0));
#37=DIRECTION('',(1.E0,0.E0,0.E0));
#38=AXIS2_PLACEMENT_3D('',#35,#36,#37);
#40=CARTESIAN_POINT('',(0.E0,3.E0,0.E0));
#41=DIRECTION('',(0.E0,1.E0,0.E0));
#42=DIRECTION('',(1.E0,0.E0,0.E0));
#43=AXIS2_PLACEMENT_3D('',#40,#41,#42);
#45=DIRECTION('',(0.E0,1.E0,4.227440410567E-14));
#46=VECTOR('',#45,1.02E1);
#47=CARTESIAN_POINT('',(5.E0,3.E0,0.E0));
#48=LINE('',#47,#46);
#49=CARTESIAN_POINT('',(0.E0,3.E0,0.E0));
#50=DIRECTION('',(0.E0,-1.E0,0.E0));
#51=DIRECTION('',(-1.E0,0.E0,0.E0));
#52=AXIS2_PLACEMENT_3D('',#49,#50,#51);
#54=CARTESIAN_POINT('',(0.E0,3.E0,0.E0));
#55=DIRECTION('',(0.E0,-1.E0,0.E0));
#56=DIRECTION('',(1.E0,0.E0,0.E0));
#57=AXIS2_PLACEMENT_3D('',#54,#55,#56);
#59=DIRECTION('',(0.E0,1.E0,0.E0));
#60=VECTOR('',#59,2.E0);
#61=CARTESIAN_POINT('',(5.5E0,1.E0,0.E0));
#62=LINE('',#61,#60);
#63=DIRECTION('',(0.E0,1.E0,0.E0));
#64=VECTOR('',#63,2.E0);
#65=CARTESIAN_POINT('',(-5.5E0,1.E0,0.E0));
#66=LINE('',#65,#64);
#67=CARTESIAN_POINT('',(0.E0,1.E0,0.E0));
#68=DIRECTION('',(0.E0,-1.E0,0.E0));
#69=DIRECTION('',(-1.E0,0.E0,0.E0));
#70=AXIS2_PLACEMENT_3D('',#67,#68,#69);
#72=CARTESIAN_POINT('',(0.E0,1.E0,0.E0));
#73=DIRECTION('',(0.E0,-1.E0,0.E0));
#74=DIRECTION('',(1.E0,0.E0,0.E0));
#75=AXIS2_PLACEMENT_3D('',#72,#73,#74);
#77=CARTESIAN_POINT('',(0.E0,1.E0,0.E0));
#78=DIRECTION('',(0.E0,1.E0,0.E0));
#79=DIRECTION('',(1.E0,0.E0,0.E0));
#80=AXIS2_PLACEMENT_3D('',#77,#78,#79);
#82=CARTESIAN_POINT('',(0.E0,1.E0,0.E0));
#83=DIRECTION('',(0.E0,1.E0,0.E0));
#84=DIRECTION('',(-1.E0,0.E0,0.E0));
#85=AXIS2_PLACEMENT_3D('',#82,#83,#84);
#87=DIRECTION('',(0.E0,1.E0,0.E0));
#88=VECTOR('',#87,1.E0);
#89=CARTESIAN_POINT('',(4.E0,0.E0,0.E0));
#90=LINE('',#89,#88);
#91=DIRECTION('',(0.E0,1.E0,0.E0));
#92=VECTOR('',#91,1.E0);
#93=CARTESIAN_POINT('',(-4.E0,0.E0,0.E0));
#94=LINE('',#93,#92);
#95=CARTESIAN_POINT('',(0.E0,0.E0,0.E0));
#96=DIRECTION('',(0.E0,1.E0,0.E0));
#97=DIRECTION('',(1.E0,0.E0,0.E0));
#98=AXIS2_PLACEMENT_3D('',#95,#96,#97);
#100=CARTESIAN_POINT('',(0.E0,0.E0,0.E0));
#101=DIRECTION('',(0.E0,1.E0,0.E0));
#102=DIRECTION('',(-1.E0,0.E0,0.E0));
#103=AXIS2_PLACEMENT_3D('',#100,#101,#102);
#105=CARTESIAN_POINT('',(-2.5E0,0.E0,0.E0));
#106=DIRECTION('',(0.E0,1.E0,0.E0));
#107=DIRECTION('',(0.E0,0.E0,-1.E0));
#108=AXIS2_PLACEMENT_3D('',#105,#106,#107);
#110=CARTESIAN_POINT('',(-2.5E0,0.E0,0.E0));
#111=DIRECTION('',(0.E0,1.E0,0.E0));
#112=DIRECTION('',(0.E0,0.E0,1.E0));
#113=AXIS2_PLACEMENT_3D('',#110,#111,#112);
#115=CARTESIAN_POINT('',(2.5E0,0.E0,0.E0));
#116=DIRECTION('',(0.E0,1.E0,0.E0));
#117=DIRECTION('',(0.E0,0.E0,-1.E0));
#118=AXIS2_PLACEMENT_3D('',#115,#116,#117);
#120=CARTESIAN_POINT('',(2.5E0,0.E0,0.E0));
#121=DIRECTION('',(0.E0,1.E0,0.E0));
#122=DIRECTION('',(0.E0,0.E0,1.E0));
#123=AXIS2_PLACEMENT_3D('',#120,#121,#122);
#125=DIRECTION('',(0.E0,-1.E0,0.E0));
#126=VECTOR('',#125,6.E0);
#127=CARTESIAN_POINT('',(-2.5E0,0.E0,-3.5E-1));
#128=LINE('',#127,#126);
#129=DIRECTION('',(0.E0,-1.E0,0.E0));
#130=VECTOR('',#129,6.E0);
#131=CARTESIAN_POINT('',(-2.5E0,0.E0,3.5E-1));
#132=LINE('',#131,#130);
#133=CARTESIAN_POINT('',(-2.5E0,-6.E0,0.E0));
#134=DIRECTION('',(0.E0,1.E0,0.E0));
#135=DIRECTION('',(0.E0,0.E0,-1.E0));
#136=AXIS2_PLACEMENT_3D('',#133,#134,#135);
#138=CARTESIAN_POINT('',(-2.5E0,-6.E0,0.E0));
#139=DIRECTION('',(0.E0,1.E0,0.E0));
#140=DIRECTION('',(0.E0,0.E0,1.E0));
#141=AXIS2_PLACEMENT_3D('',#138,#139,#140);
#143=CARTESIAN_POINT('',(2.5E0,-6.E0,0.E0));
#144=DIRECTION('',(0.E0,1.E0,0.E0));
#145=DIRECTION('',(0.E0,0.E0,-1.E0));
#146=AXIS2_PLACEMENT_3D('',#143,#144,#145);
#148=CARTESIAN_POINT('',(2.5E0,-6.E0,0.E0));
#149=DIRECTION('',(0.E0,1.E0,0.E0));
#150=DIRECTION('',(0.E0,0.E0,1.E0));
#151=AXIS2_PLACEMENT_3D('',#148,#149,#150);
#153=DIRECTION('',(0.E0,-1.E0,0.E0));
#154=VECTOR('',#153,6.E0);
#155=CARTESIAN_POINT('',(2.5E0,0.E0,-3.5E-1));
#156=LINE('',#155,#154);
#157=DIRECTION('',(0.E0,-1.E0,0.E0));
#158=VECTOR('',#157,6.E0);
#159=CARTESIAN_POINT('',(2.5E0,0.E0,3.5E-1));
#160=LINE('',#159,#158);
#161=CARTESIAN_POINT('',(-5.5E0,3.E0,0.E0));
#162=CARTESIAN_POINT('',(5.5E0,3.E0,0.E0));
#163=VERTEX_POINT('',#161);
#164=VERTEX_POINT('',#162);
#165=CARTESIAN_POINT('',(-5.5E0,1.E0,0.E0));
#166=CARTESIAN_POINT('',(5.5E0,1.E0,0.E0));
#167=VERTEX_POINT('',#165);
#168=VERTEX_POINT('',#166);
#169=CARTESIAN_POINT('',(4.E0,0.E0,0.E0));
#170=CARTESIAN_POINT('',(-4.E0,0.E0,0.E0));
#171=VERTEX_POINT('',#169);
#172=VERTEX_POINT('',#170);
#173=CARTESIAN_POINT('',(5.E0,3.E0,0.E0));
#174=CARTESIAN_POINT('',(-5.E0,3.E0,0.E0));
#175=VERTEX_POINT('',#173);
#176=VERTEX_POINT('',#174);
#177=CARTESIAN_POINT('',(4.E0,1.E0,0.E0));
#178=CARTESIAN_POINT('',(-4.E0,1.E0,0.E0));
#179=VERTEX_POINT('',#177);
#180=VERTEX_POINT('',#178);
#181=CARTESIAN_POINT('',(-2.5E0,-6.E0,-3.5E-1));
#182=CARTESIAN_POINT('',(-2.5E0,-6.E0,3.5E-1));
#183=VERTEX_POINT('',#181);
#184=VERTEX_POINT('',#182);
#185=CARTESIAN_POINT('',(2.5E0,-6.E0,-3.5E-1));
#186=CARTESIAN_POINT('',(2.5E0,-6.E0,3.5E-1));
#187=VERTEX_POINT('',#185);
#188=VERTEX_POINT('',#186);
#189=CARTESIAN_POINT('',(-2.5E0,0.E0,-3.5E-1));
#190=CARTESIAN_POINT('',(-2.5E0,0.E0,3.5E-1));
#191=VERTEX_POINT('',#189);
#192=VERTEX_POINT('',#190);
#193=CARTESIAN_POINT('',(2.5E0,0.E0,-3.5E-1));
#194=CARTESIAN_POINT('',(2.5E0,0.E0,3.5E-1));
#195=VERTEX_POINT('',#193);
#196=VERTEX_POINT('',#194);
#197=CARTESIAN_POINT('',(4.7E0,1.35E1,0.E0));
#198=CARTESIAN_POINT('',(-4.7E0,1.35E1,0.E0));
#199=VERTEX_POINT('',#197);
#200=VERTEX_POINT('',#198);
#201=CARTESIAN_POINT('',(5.E0,1.32E1,0.E0));
#202=CARTESIAN_POINT('',(-5.E0,1.32E1,0.E0));
#203=VERTEX_POINT('',#201);
#204=VERTEX_POINT('',#202);
#205=CARTESIAN_POINT('',(0.E0,1.35E1,0.E0));
#206=DIRECTION('',(0.E0,1.E0,0.E0));
#207=DIRECTION('',(1.E0,0.E0,0.E0));
#208=AXIS2_PLACEMENT_3D('',#205,#206,#207);
#209=PLANE('',#208);
#211=ORIENTED_EDGE('',*,*,#210,.F.);
#213=ORIENTED_EDGE('',*,*,#212,.F.);
#214=EDGE_LOOP('',(#211,#213));
#215=FACE_OUTER_BOUND('',#214,.F.);
#217=CARTESIAN_POINT('',(0.E0,1.32E1,0.E0));
#218=DIRECTION('',(0.E0,1.E0,0.E0));
#219=DIRECTION('',(9.999948911140E-1,0.E0,3.196520902016E-3));
#220=AXIS2_PLACEMENT_3D('',#217,#218,#219);
#221=TOROIDAL_SURFACE('',#220,4.7E0,3.E-1);
#222=ORIENTED_EDGE('',*,*,#210,.T.);
#224=ORIENTED_EDGE('',*,*,#223,.T.);
#226=ORIENTED_EDGE('',*,*,#225,.F.);
#228=ORIENTED_EDGE('',*,*,#227,.F.);
#229=EDGE_LOOP('',(#222,#224,#226,#228));
#230=FACE_OUTER_BOUND('',#229,.F.);
#232=CARTESIAN_POINT('',(0.E0,1.32E1,0.E0));
#233=DIRECTION('',(0.E0,1.E0,0.E0));
#234=DIRECTION('',(-9.999948911140E-1,0.E0,-3.196520902016E-3));
#235=AXIS2_PLACEMENT_3D('',#232,#233,#234);
#236=TOROIDAL_SURFACE('',#235,4.7E0,3.E-1);
#237=ORIENTED_EDGE('',*,*,#212,.T.);
#238=ORIENTED_EDGE('',*,*,#227,.T.);
#240=ORIENTED_EDGE('',*,*,#239,.F.);
#241=ORIENTED_EDGE('',*,*,#223,.F.);
#242=EDGE_LOOP('',(#237,#238,#240,#241));
#243=FACE_OUTER_BOUND('',#242,.F.);
#245=CARTESIAN_POINT('',(0.E0,3.E0,0.E0));
#246=DIRECTION('',(0.E0,1.E0,0.E0));
#247=DIRECTION('',(1.E0,0.E0,0.E0));
#248=AXIS2_PLACEMENT_3D('',#245,#246,#247);
#249=CYLINDRICAL_SURFACE('',#248,5.E0);
#250=ORIENTED_EDGE('',*,*,#239,.T.);
#252=ORIENTED_EDGE('',*,*,#251,.F.);
#254=ORIENTED_EDGE('',*,*,#253,.F.);
#256=ORIENTED_EDGE('',*,*,#255,.T.);
#257=EDGE_LOOP('',(#250,#252,#254,#256));
#258=FACE_OUTER_BOUND('',#257,.F.);
#260=CARTESIAN_POINT('',(0.E0,3.E0,0.E0));
#261=DIRECTION('',(0.E0,1.E0,0.E0));
#262=DIRECTION('',(1.E0,0.E0,0.E0));
#263=AXIS2_PLACEMENT_3D('',#260,#261,#262);
#264=CYLINDRICAL_SURFACE('',#263,5.E0);
#265=ORIENTED_EDGE('',*,*,#225,.T.);
#266=ORIENTED_EDGE('',*,*,#255,.F.);
#268=ORIENTED_EDGE('',*,*,#267,.F.);
#269=ORIENTED_EDGE('',*,*,#251,.T.);
#270=EDGE_LOOP('',(#265,#266,#268,#269));
#271=FACE_OUTER_BOUND('',#270,.F.);
#273=CARTESIAN_POINT('',(0.E0,3.E0,0.E0));
#274=DIRECTION('',(0.E0,1.E0,0.E0));
#275=DIRECTION('',(1.E0,0.E0,0.E0));
#276=AXIS2_PLACEMENT_3D('',#273,#274,#275);
#277=PLANE('',#276);
#279=ORIENTED_EDGE('',*,*,#278,.T.);
#281=ORIENTED_EDGE('',*,*,#280,.T.);
#282=EDGE_LOOP('',(#279,#281));
#283=FACE_OUTER_BOUND('',#282,.F.);
#284=ORIENTED_EDGE('',*,*,#267,.T.);
#285=ORIENTED_EDGE('',*,*,#253,.T.);
#286=EDGE_LOOP('',(#284,#285));
#287=FACE_BOUND('',#286,.F.);
#289=CARTESIAN_POINT('',(0.E0,3.E0,0.E0));
#290=DIRECTION('',(0.E0,1.E0,0.E0));
#291=DIRECTION('',(1.E0,0.E0,0.E0));
#292=AXIS2_PLACEMENT_3D('',#289,#290,#291);
#293=CYLINDRICAL_SURFACE('',#292,5.5E0);
#294=ORIENTED_EDGE('',*,*,#278,.F.);
#296=ORIENTED_EDGE('',*,*,#295,.F.);
#298=ORIENTED_EDGE('',*,*,#297,.T.);
#300=ORIENTED_EDGE('',*,*,#299,.T.);
#301=EDGE_LOOP('',(#294,#296,#298,#300));
#302=FACE_OUTER_BOUND('',#301,.F.);
#304=CARTESIAN_POINT('',(0.E0,3.E0,0.E0));
#305=DIRECTION('',(0.E0,1.E0,0.E0));
#306=DIRECTION('',(1.E0,0.E0,0.E0));
#307=AXIS2_PLACEMENT_3D('',#304,#305,#306);
#308=CYLINDRICAL_SURFACE('',#307,5.5E0);
#309=ORIENTED_EDGE('',*,*,#280,.F.);
#310=ORIENTED_EDGE('',*,*,#299,.F.);
#312=ORIENTED_EDGE('',*,*,#311,.T.);
#313=ORIENTED_EDGE('',*,*,#295,.T.);
#314=EDGE_LOOP('',(#309,#310,#312,#313));
#315=FACE_OUTER_BOUND('',#314,.F.);
#317=CARTESIAN_POINT('',(0.E0,1.E0,0.E0));
#318=DIRECTION('',(0.E0,1.E0,0.E0));
#319=DIRECTION('',(1.E0,0.E0,0.E0));
#320=AXIS2_PLACEMENT_3D('',#317,#318,#319);
#321=PLANE('',#320);
#322=ORIENTED_EDGE('',*,*,#297,.F.);
#323=ORIENTED_EDGE('',*,*,#311,.F.);
#324=EDGE_LOOP('',(#322,#323));
#325=FACE_OUTER_BOUND('',#324,.F.);
#327=ORIENTED_EDGE('',*,*,#326,.F.);
#329=ORIENTED_EDGE('',*,*,#328,.F.);
#330=EDGE_LOOP('',(#327,#329));
#331=FACE_BOUND('',#330,.F.);
#333=CARTESIAN_POINT('',(0.E0,0.E0,0.E0));
#334=DIRECTION('',(0.E0,1.E0,0.E0));
#335=DIRECTION('',(1.E0,0.E0,0.E0));
#336=AXIS2_PLACEMENT_3D('',#333,#334,#335);
#337=CYLINDRICAL_SURFACE('',#336,4.E0);
#338=ORIENTED_EDGE('',*,*,#326,.T.);
#340=ORIENTED_EDGE('',*,*,#339,.F.);
#342=ORIENTED_EDGE('',*,*,#341,.F.);
#344=ORIENTED_EDGE('',*,*,#343,.T.);
#345=EDGE_LOOP('',(#338,#340,#342,#344));
#346=FACE_OUTER_BOUND('',#345,.F.);
#348=CARTESIAN_POINT('',(0.E0,0.E0,0.E0));
#349=DIRECTION('',(0.E0,1.E0,0.E0));
#350=DIRECTION('',(1.E0,0.E0,0.E0));
#351=AXIS2_PLACEMENT_3D('',#348,#349,#350);
#352=CYLINDRICAL_SURFACE('',#351,4.E0);
#353=ORIENTED_EDGE('',*,*,#328,.T.);
#354=ORIENTED_EDGE('',*,*,#343,.F.);
#356=ORIENTED_EDGE('',*,*,#355,.F.);
#357=ORIENTED_EDGE('',*,*,#339,.T.);
#358=EDGE_LOOP('',(#353,#354,#356,#357));
#359=FACE_OUTER_BOUND('',#358,.F.);
#361=CARTESIAN_POINT('',(0.E0,0.E0,0.E0));
#362=DIRECTION('',(0.E0,1.E0,0.E0));
#363=DIRECTION('',(1.E0,0.E0,0.E0));
#364=AXIS2_PLACEMENT_3D('',#361,#362,#363);
#365=PLANE('',#364);
#366=ORIENTED_EDGE('',*,*,#341,.T.);
#367=ORIENTED_EDGE('',*,*,#355,.T.);
#368=EDGE_LOOP('',(#366,#367));
#369=FACE_OUTER_BOUND('',#368,.F.);
#371=ORIENTED_EDGE('',*,*,#370,.F.);
#373=ORIENTED_EDGE('',*,*,#372,.F.);
#374=EDGE_LOOP('',(#371,#373));
#375=FACE_BOUND('',#374,.F.);
#377=ORIENTED_EDGE('',*,*,#376,.F.);
#379=ORIENTED_EDGE('',*,*,#378,.F.);
#380=EDGE_LOOP('',(#377,#379));
#381=FACE_BOUND('',#380,.F.);
#383=CARTESIAN_POINT('',(-2.5E0,0.E0,0.E0));
#384=DIRECTION('',(0.E0,1.E0,0.E0));
#385=DIRECTION('',(0.E0,0.E0,-1.E0));
#386=AXIS2_PLACEMENT_3D('',#383,#384,#385);
#387=CYLINDRICAL_SURFACE('',#386,3.5E-1);
#388=ORIENTED_EDGE('',*,*,#370,.T.);
#390=ORIENTED_EDGE('',*,*,#389,.T.);
#392=ORIENTED_EDGE('',*,*,#391,.F.);
#394=ORIENTED_EDGE('',*,*,#393,.F.);
#395=EDGE_LOOP('',(#388,#390,#392,#394));
#396=FACE_OUTER_BOUND('',#395,.F.);
#398=CARTESIAN_POINT('',(-2.5E0,0.E0,0.E0));
#399=DIRECTION('',(0.E0,1.E0,0.E0));
#400=DIRECTION('',(0.E0,0.E0,-1.E0));
#401=AXIS2_PLACEMENT_3D('',#398,#399,#400);
#402=CYLINDRICAL_SURFACE('',#401,3.5E-1);
#403=ORIENTED_EDGE('',*,*,#372,.T.);
#404=ORIENTED_EDGE('',*,*,#393,.T.);
#406=ORIENTED_EDGE('',*,*,#405,.F.);
#407=ORIENTED_EDGE('',*,*,#389,.F.);
#408=EDGE_LOOP('',(#403,#404,#406,#407));
#409=FACE_OUTER_BOUND('',#408,.F.);
#411=CARTESIAN_POINT('',(0.E0,-6.E0,0.E0));
#412=DIRECTION('',(0.E0,1.E0,0.E0));
#413=DIRECTION('',(0.E0,0.E0,-1.E0));
#414=AXIS2_PLACEMENT_3D('',#411,#412,#413);
#415=PLANE('',#414);
#416=ORIENTED_EDGE('',*,*,#391,.T.);
#417=ORIENTED_EDGE('',*,*,#405,.T.);
#418=EDGE_LOOP('',(#416,#417));
#419=FACE_OUTER_BOUND('',#418,.F.);
#421=CARTESIAN_POINT('',(0.E0,-6.E0,0.E0));
#422=DIRECTION('',(0.E0,1.E0,0.E0));
#423=DIRECTION('',(0.E0,0.E0,-1.E0));
#424=AXIS2_PLACEMENT_3D('',#421,#422,#423);
#425=PLANE('',#424);
#427=ORIENTED_EDGE('',*,*,#426,.T.);
#429=ORIENTED_EDGE('',*,*,#428,.T.);
#430=EDGE_LOOP('',(#427,#429));
#431=FACE_OUTER_BOUND('',#430,.F.);
#433=CARTESIAN_POINT('',(2.5E0,0.E0,0.E0));
#434=DIRECTION('',(0.E0,1.E0,0.E0));
#435=DIRECTION('',(0.E0,0.E0,-1.E0));
#436=AXIS2_PLACEMENT_3D('',#433,#434,#435);
#437=CYLINDRICAL_SURFACE('',#436,3.5E-1);
#438=ORIENTED_EDGE('',*,*,#376,.T.);
#440=ORIENTED_EDGE('',*,*,#439,.T.);
#441=ORIENTED_EDGE('',*,*,#426,.F.);
#443=ORIENTED_EDGE('',*,*,#442,.F.);
#444=EDGE_LOOP('',(#438,#440,#441,#443));
#445=FACE_OUTER_BOUND('',#444,.F.);
#447=CARTESIAN_POINT('',(2.5E0,0.E0,0.E0));
#448=DIRECTION('',(0.E0,1.E0,0.E0));
#449=DIRECTION('',(0.E0,0.E0,-1.E0));
#450=AXIS2_PLACEMENT_3D('',#447,#448,#449);
#451=CYLINDRICAL_SURFACE('',#450,3.5E-1);
#452=ORIENTED_EDGE('',*,*,#378,.T.);
#453=ORIENTED_EDGE('',*,*,#442,.T.);
#454=ORIENTED_EDGE('',*,*,#428,.F.);
#455=ORIENTED_EDGE('',*,*,#439,.F.);
#456=EDGE_LOOP('',(#452,#453,#454,#455));
#457=FACE_OUTER_BOUND('',#456,.F.);
#459=CLOSED_SHELL('',(#216,#231,#244,#259,#272,#288,#303,#316,#332,#347,#360,
#382,#397,#410,#420,#432,#446,#458));
#460=MANIFOLD_SOLID_BREP('',#459);
#462=DIMENSIONAL_EXPONENTS(0.E0,0.E0,0.E0,0.E0,0.E0,0.E0,0.E0);
#464=PLANE_ANGLE_MEASURE_WITH_UNIT(PLANE_ANGLE_MEASURE(1.745329251994E-2),#463);
#465=(CONVERSION_BASED_UNIT('DEGREE',#464)NAMED_UNIT(*)PLANE_ANGLE_UNIT());
#467=UNCERTAINTY_MEASURE_WITH_UNIT(LENGTH_MEASURE(1.039399077045E-3),#461,
'closure',
'Maximum model space distance between geometric entities at asserted connectivities');
#470=APPLICATION_CONTEXT(
'CONFIGURATION CONTROLLED 3D DESIGNS OF MECHANICAL PARTS AND ASSEMBLIES');
#471=APPLICATION_PROTOCOL_DEFINITION('international standard',
'config_control_design',1994,#470);
#472=DESIGN_CONTEXT('',#470,'design');
#473=MECHANICAL_CONTEXT('',#470,'mechanical');
#474=PRODUCT('FSR1013','FSR1013','NOT SPECIFIED',(#473));
#475=PRODUCT_DEFINITION_FORMATION_WITH_SPECIFIED_SOURCE('1','LAST_VERSION',#474,
.MADE.);
#479=PRODUCT_CATEGORY('part','');
#480=PRODUCT_RELATED_PRODUCT_CATEGORY('detail','',(#474));
#481=PRODUCT_CATEGORY_RELATIONSHIP('','',#479,#480);
#482=SECURITY_CLASSIFICATION_LEVEL('unclassified');
#483=SECURITY_CLASSIFICATION('','',#482);
#484=CC_DESIGN_SECURITY_CLASSIFICATION(#483,(#475));
#485=APPROVAL_STATUS('approved');
#486=APPROVAL(#485,'');
#487=CC_DESIGN_APPROVAL(#486,(#483,#475,#476));
#488=CALENDAR_DATE(112,13,7);
#489=COORDINATED_UNIVERSAL_TIME_OFFSET(7,0,.BEHIND.);
#490=LOCAL_TIME(16,5,2.E0,#489);
#491=DATE_AND_TIME(#488,#490);
#492=APPROVAL_DATE_TIME(#491,#486);
#493=DATE_TIME_ROLE('creation_date');
#494=CC_DESIGN_DATE_AND_TIME_ASSIGNMENT(#491,#493,(#476));
#495=DATE_TIME_ROLE('classification_date');
#496=CC_DESIGN_DATE_AND_TIME_ASSIGNMENT(#491,#495,(#483));
#497=PERSON('UNSPECIFIED','UNSPECIFIED',$,$,$,$);
#498=ORGANIZATION('UNSPECIFIED','UNSPECIFIED','UNSPECIFIED');
#499=PERSON_AND_ORGANIZATION(#497,#498);
#500=APPROVAL_ROLE('approver');
#501=APPROVAL_PERSON_ORGANIZATION(#499,#486,#500);
#502=PERSON_AND_ORGANIZATION_ROLE('creator');
#503=CC_DESIGN_PERSON_AND_ORGANIZATION_ASSIGNMENT(#499,#502,(#475,#476));
#504=PERSON_AND_ORGANIZATION_ROLE('design_supplier');
#505=CC_DESIGN_PERSON_AND_ORGANIZATION_ASSIGNMENT(#499,#504,(#475));
#506=PERSON_AND_ORGANIZATION_ROLE('classification_officer');
#507=CC_DESIGN_PERSON_AND_ORGANIZATION_ASSIGNMENT(#499,#506,(#483));
#508=PERSON_AND_ORGANIZATION_ROLE('design_owner');
#509=CC_DESIGN_PERSON_AND_ORGANIZATION_ASSIGNMENT(#499,#508,(#474));
#5=CIRCLE('',#4,4.7E0);
#10=CIRCLE('',#9,4.7E0);
#15=CIRCLE('',#14,3.E-1);
#20=CIRCLE('',#19,3.E-1);
#25=CIRCLE('',#24,5.E0);
#30=CIRCLE('',#29,5.E0);
#39=CIRCLE('',#38,5.E0);
#44=CIRCLE('',#43,5.E0);
#53=CIRCLE('',#52,5.5E0);
#58=CIRCLE('',#57,5.5E0);
#71=CIRCLE('',#70,5.5E0);
#76=CIRCLE('',#75,5.5E0);
#81=CIRCLE('',#80,4.E0);
#86=CIRCLE('',#85,4.E0);
#99=CIRCLE('',#98,4.E0);
#104=CIRCLE('',#103,4.E0);
#109=CIRCLE('',#108,3.5E-1);
#114=CIRCLE('',#113,3.5E-1);
#119=CIRCLE('',#118,3.5E-1);
#124=CIRCLE('',#123,3.5E-1);
#137=CIRCLE('',#136,3.5E-1);
#142=CIRCLE('',#141,3.5E-1);
#147=CIRCLE('',#146,3.5E-1);
#152=CIRCLE('',#151,3.5E-1);
#210=EDGE_CURVE('',#199,#200,#5,.T.);
#212=EDGE_CURVE('',#200,#199,#10,.T.);
#216=ADVANCED_FACE('',(#215),#209,.T.);
#223=EDGE_CURVE('',#200,#204,#20,.T.);
#225=EDGE_CURVE('',#203,#204,#39,.T.);
#227=EDGE_CURVE('',#199,#203,#15,.T.);
#231=ADVANCED_FACE('',(#230),#221,.T.);
#239=EDGE_CURVE('',#204,#203,#25,.T.);
#244=ADVANCED_FACE('',(#243),#236,.T.);
#251=EDGE_CURVE('',#175,#203,#48,.T.);
#253=EDGE_CURVE('',#176,#175,#30,.T.);
#255=EDGE_CURVE('',#176,#204,#34,.T.);
#259=ADVANCED_FACE('',(#258),#249,.T.);
#267=EDGE_CURVE('',#175,#176,#44,.T.);
#272=ADVANCED_FACE('',(#271),#264,.T.);
#278=EDGE_CURVE('',#163,#164,#53,.T.);
#280=EDGE_CURVE('',#164,#163,#58,.T.);
#288=ADVANCED_FACE('',(#283,#287),#277,.T.);
#295=EDGE_CURVE('',#167,#163,#66,.T.);
#297=EDGE_CURVE('',#167,#168,#71,.T.);
#299=EDGE_CURVE('',#168,#164,#62,.T.);
#303=ADVANCED_FACE('',(#302),#293,.T.);
#311=EDGE_CURVE('',#168,#167,#76,.T.);
#316=ADVANCED_FACE('',(#315),#308,.T.);
#326=EDGE_CURVE('',#179,#180,#81,.T.);
#328=EDGE_CURVE('',#180,#179,#86,.T.);
#332=ADVANCED_FACE('',(#325,#331),#321,.F.);
#339=EDGE_CURVE('',#172,#180,#94,.T.);
#341=EDGE_CURVE('',#171,#172,#99,.T.);
#343=EDGE_CURVE('',#171,#179,#90,.T.);
#347=ADVANCED_FACE('',(#346),#337,.T.);
#355=EDGE_CURVE('',#172,#171,#104,.T.);
#360=ADVANCED_FACE('',(#359),#352,.T.);
#370=EDGE_CURVE('',#191,#192,#109,.T.);
#372=EDGE_CURVE('',#192,#191,#114,.T.);
#376=EDGE_CURVE('',#195,#196,#119,.T.);
#378=EDGE_CURVE('',#196,#195,#124,.T.);
#382=ADVANCED_FACE('',(#369,#375,#381),#365,.F.);
#389=EDGE_CURVE('',#192,#184,#132,.T.);
#391=EDGE_CURVE('',#183,#184,#137,.T.);
#393=EDGE_CURVE('',#191,#183,#128,.T.);
#397=ADVANCED_FACE('',(#396),#387,.T.);
#405=EDGE_CURVE('',#184,#183,#142,.T.);
#410=ADVANCED_FACE('',(#409),#402,.T.);
#420=ADVANCED_FACE('',(#419),#415,.F.);
#426=EDGE_CURVE('',#187,#188,#147,.T.);
#428=EDGE_CURVE('',#188,#187,#152,.T.);
#432=ADVANCED_FACE('',(#431),#425,.F.);
#439=EDGE_CURVE('',#196,#188,#160,.T.);
#442=EDGE_CURVE('',#195,#187,#156,.T.);
#446=ADVANCED_FACE('',(#445),#437,.T.);
#458=ADVANCED_FACE('',(#457),#451,.T.);
#461=(LENGTH_UNIT()NAMED_UNIT(*)SI_UNIT(.MILLI.,.METRE.));
#463=(NAMED_UNIT(*)PLANE_ANGLE_UNIT()SI_UNIT($,.RADIAN.));
#466=(NAMED_UNIT(*)SI_UNIT($,.STERADIAN.)SOLID_ANGLE_UNIT());
#468=(GEOMETRIC_REPRESENTATION_CONTEXT(3)GLOBAL_UNCERTAINTY_ASSIGNED_CONTEXT((
#467))GLOBAL_UNIT_ASSIGNED_CONTEXT((#461,#465,#466))REPRESENTATION_CONTEXT
('ID1','3'));
#469=ADVANCED_BREP_SHAPE_REPRESENTATION('',(#460),#468);
#476=PRODUCT_DEFINITION('design','',#475,#472);
#477=PRODUCT_DEFINITION_SHAPE('','SHAPE FOR FSR1013.',#476);
#478=SHAPE_DEFINITION_REPRESENTATION(#477,#469);
ENDSEC;
END-ISO-10303-21;
