ISO-10303-21;
HEADER;
FILE_DESCRIPTION((''),'2;1');
FILE_NAME('CR2512','2012-08-17T',('ryans'),('Bourns, Inc.'),
'PRO/ENGINEER BY PARAMETRIC TECHNOLOGY CORPORATION, 2010100',
'PRO/ENGINEER BY PARAMETRIC TECHNOLOGY CORPORATION, 2010100','');
FILE_SCHEMA(('CONFIG_CONTROL_DESIGN'));
ENDSEC;
DATA;
#1=DIRECTION('',(0.E0,0.E0,-1.E0));
#2=VECTOR('',#1,1.6E0);
#3=CARTESIAN_POINT('',(1.1E0,0.E0,8.E-1));
#4=LINE('',#3,#2);
#5=DIRECTION('',(1.E0,0.E0,0.E0));
#6=VECTOR('',#5,5.E-1);
#7=CARTESIAN_POINT('',(1.1E0,0.E0,8.E-1));
#8=LINE('',#7,#6);
#9=DIRECTION('',(0.E0,0.E0,-1.E0));
#10=VECTOR('',#9,1.6E0);
#11=CARTESIAN_POINT('',(1.6E0,0.E0,8.E-1));
#12=LINE('',#11,#10);
#13=DIRECTION('',(-1.E0,0.E0,0.E0));
#14=VECTOR('',#13,5.E-1);
#15=CARTESIAN_POINT('',(1.6E0,0.E0,-8.E-1));
#16=LINE('',#15,#14);
#17=DIRECTION('',(0.E0,0.E0,-1.E0));
#18=VECTOR('',#17,1.6E0);
#19=CARTESIAN_POINT('',(-1.1E0,0.E0,8.E-1));
#20=LINE('',#19,#18);
#21=DIRECTION('',(-1.E0,0.E0,0.E0));
#22=VECTOR('',#21,5.E-1);
#23=CARTESIAN_POINT('',(-1.1E0,0.E0,-8.E-1));
#24=LINE('',#23,#22);
#25=DIRECTION('',(0.E0,0.E0,1.E0));
#26=VECTOR('',#25,1.6E0);
#27=CARTESIAN_POINT('',(-1.6E0,0.E0,-8.E-1));
#28=LINE('',#27,#26);
#29=DIRECTION('',(1.E0,0.E0,0.E0));
#30=VECTOR('',#29,5.E-1);
#31=CARTESIAN_POINT('',(-1.6E0,0.E0,8.E-1));
#32=LINE('',#31,#30);
#33=DIRECTION('',(0.E0,1.E0,0.E0));
#34=VECTOR('',#33,1.960297999455E-2);
#35=CARTESIAN_POINT('',(1.1E0,0.E0,-8.E-1));
#36=LINE('',#35,#34);
#37=DIRECTION('',(0.E0,1.E0,0.E0));
#38=VECTOR('',#37,5.803970200055E-1);
#39=CARTESIAN_POINT('',(1.6E0,0.E0,-8.E-1));
#40=LINE('',#39,#38);
#41=DIRECTION('',(-1.E0,0.E0,0.E0));
#42=VECTOR('',#41,5.E-1);
#43=CARTESIAN_POINT('',(1.6E0,5.803970200055E-1,-8.E-1));
#44=LINE('',#43,#42);
#45=DIRECTION('',(7.071067811865E-1,-7.071067811865E-1,0.E0));
#46=VECTOR('',#45,2.772280017122E-2);
#47=CARTESIAN_POINT('',(1.080397020005E0,6.E-1,-8.E-1));
#48=LINE('',#47,#46);
#49=DIRECTION('',(7.071067811865E-1,7.071067811866E-1,0.E0));
#50=VECTOR('',#49,2.772280017122E-2);
#51=CARTESIAN_POINT('',(-1.1E0,5.803970200055E-1,-8.E-1));
#52=LINE('',#51,#50);
#53=DIRECTION('',(1.E0,0.E0,0.E0));
#54=VECTOR('',#53,5.E-1);
#55=CARTESIAN_POINT('',(-1.6E0,5.803970200055E-1,-8.E-1));
#56=LINE('',#55,#54);
#57=DIRECTION('',(0.E0,1.E0,0.E0));
#58=VECTOR('',#57,1.960297999455E-2);
#59=CARTESIAN_POINT('',(-1.1E0,0.E0,-8.E-1));
#60=LINE('',#59,#58);
#61=DIRECTION('',(-1.E0,0.E0,0.E0));
#62=VECTOR('',#61,2.2E0);
#63=CARTESIAN_POINT('',(1.1E0,1.960297999455E-2,-8.E-1));
#64=LINE('',#63,#62);
#65=DIRECTION('',(0.E0,0.E0,-1.E0));
#66=VECTOR('',#65,1.6E0);
#67=CARTESIAN_POINT('',(1.6E0,5.803970200055E-1,8.E-1));
#68=LINE('',#67,#66);
#69=DIRECTION('',(0.E0,1.E0,0.E0));
#70=VECTOR('',#69,5.803970200055E-1);
#71=CARTESIAN_POINT('',(1.6E0,0.E0,8.E-1));
#72=LINE('',#71,#70);
#73=DIRECTION('',(0.E0,0.E0,-1.E0));
#74=VECTOR('',#73,1.6E0);
#75=CARTESIAN_POINT('',(1.1E0,5.803970200055E-1,8.E-1));
#76=LINE('',#75,#74);
#77=DIRECTION('',(0.E0,1.E0,0.E0));
#78=VECTOR('',#77,1.960297999455E-2);
#79=CARTESIAN_POINT('',(1.1E0,0.E0,8.E-1));
#80=LINE('',#79,#78);
#81=DIRECTION('',(-1.E0,0.E0,0.E0));
#82=VECTOR('',#81,2.2E0);
#83=CARTESIAN_POINT('',(1.1E0,1.960297999455E-2,8.E-1));
#84=LINE('',#83,#82);
#85=DIRECTION('',(0.E0,1.E0,0.E0));
#86=VECTOR('',#85,1.960297999455E-2);
#87=CARTESIAN_POINT('',(-1.1E0,0.E0,8.E-1));
#88=LINE('',#87,#86);
#89=DIRECTION('',(0.E0,1.E0,0.E0));
#90=VECTOR('',#89,5.803970200055E-1);
#91=CARTESIAN_POINT('',(-1.6E0,0.E0,8.E-1));
#92=LINE('',#91,#90);
#93=DIRECTION('',(1.E0,0.E0,0.E0));
#94=VECTOR('',#93,5.E-1);
#95=CARTESIAN_POINT('',(-1.6E0,5.803970200055E-1,8.E-1));
#96=LINE('',#95,#94);
#97=DIRECTION('',(7.071067811865E-1,7.071067811865E-1,0.E0));
#98=VECTOR('',#97,2.772280017122E-2);
#99=CARTESIAN_POINT('',(-1.1E0,5.803970200055E-1,8.E-1));
#100=LINE('',#99,#98);
#101=DIRECTION('',(7.071067811865E-1,-7.071067811866E-1,0.E0));
#102=VECTOR('',#101,2.772280017122E-2);
#103=CARTESIAN_POINT('',(1.080397020005E0,6.E-1,8.E-1));
#104=LINE('',#103,#102);
#105=DIRECTION('',(-1.E0,0.E0,0.E0));
#106=VECTOR('',#105,5.E-1);
#107=CARTESIAN_POINT('',(1.6E0,5.803970200055E-1,8.E-1));
#108=LINE('',#107,#106);
#109=DIRECTION('',(0.E0,0.E0,-1.E0));
#110=VECTOR('',#109,1.6E0);
#111=CARTESIAN_POINT('',(1.1E0,1.960297999455E-2,8.E-1));
#112=LINE('',#111,#110);
#113=DIRECTION('',(0.E0,0.E0,-1.E0));
#114=VECTOR('',#113,1.6E0);
#115=CARTESIAN_POINT('',(-1.1E0,1.960297999455E-2,8.E-1));
#116=LINE('',#115,#114);
#117=DIRECTION('',(0.E0,0.E0,1.E0));
#118=VECTOR('',#117,1.6E0);
#119=CARTESIAN_POINT('',(-1.6E0,5.803970200055E-1,-8.E-1));
#120=LINE('',#119,#118);
#121=DIRECTION('',(0.E0,1.E0,0.E0));
#122=VECTOR('',#121,5.803970200055E-1);
#123=CARTESIAN_POINT('',(-1.6E0,0.E0,-8.E-1));
#124=LINE('',#123,#122);
#125=DIRECTION('',(0.E0,0.E0,-1.E0));
#126=VECTOR('',#125,1.6E0);
#127=CARTESIAN_POINT('',(-1.1E0,5.803970200055E-1,8.E-1));
#128=LINE('',#127,#126);
#129=DIRECTION('',(0.E0,0.E0,-1.E0));
#130=VECTOR('',#129,1.6E0);
#131=CARTESIAN_POINT('',(1.080397020005E0,6.E-1,8.E-1));
#132=LINE('',#131,#130);
#133=DIRECTION('',(1.E0,0.E0,0.E0));
#134=VECTOR('',#133,2.160794040011E0);
#135=CARTESIAN_POINT('',(-1.080397020005E0,6.E-1,8.E-1));
#136=LINE('',#135,#134);
#137=DIRECTION('',(0.E0,0.E0,-1.E0));
#138=VECTOR('',#137,1.6E0);
#139=CARTESIAN_POINT('',(-1.080397020005E0,6.E-1,8.E-1));
#140=LINE('',#139,#138);
#141=DIRECTION('',(-1.E0,0.E0,0.E0));
#142=VECTOR('',#141,2.160794040011E0);
#143=CARTESIAN_POINT('',(1.080397020005E0,6.E-1,-8.E-1));
#144=LINE('',#143,#142);
#145=CARTESIAN_POINT('',(-1.6E0,0.E0,-8.E-1));
#146=CARTESIAN_POINT('',(-1.6E0,0.E0,8.E-1));
#147=VERTEX_POINT('',#145);
#148=VERTEX_POINT('',#146);
#149=CARTESIAN_POINT('',(1.6E0,0.E0,8.E-1));
#150=CARTESIAN_POINT('',(1.6E0,0.E0,-8.E-1));
#151=VERTEX_POINT('',#149);
#152=VERTEX_POINT('',#150);
#153=CARTESIAN_POINT('',(1.1E0,0.E0,8.E-1));
#154=CARTESIAN_POINT('',(1.1E0,0.E0,-8.E-1));
#155=VERTEX_POINT('',#153);
#156=VERTEX_POINT('',#154);
#157=CARTESIAN_POINT('',(-1.1E0,0.E0,8.E-1));
#158=CARTESIAN_POINT('',(-1.1E0,0.E0,-8.E-1));
#159=VERTEX_POINT('',#157);
#160=VERTEX_POINT('',#158);
#161=CARTESIAN_POINT('',(1.080397020005E0,6.E-1,8.E-1));
#162=CARTESIAN_POINT('',(1.080397020005E0,6.E-1,-8.E-1));
#163=VERTEX_POINT('',#161);
#164=VERTEX_POINT('',#162);
#165=CARTESIAN_POINT('',(-1.080397020005E0,6.E-1,8.E-1));
#166=CARTESIAN_POINT('',(-1.080397020005E0,6.E-1,-8.E-1));
#167=VERTEX_POINT('',#165);
#168=VERTEX_POINT('',#166);
#169=CARTESIAN_POINT('',(-1.6E0,5.803970200055E-1,-8.E-1));
#170=CARTESIAN_POINT('',(-1.6E0,5.803970200055E-1,8.E-1));
#171=VERTEX_POINT('',#169);
#172=VERTEX_POINT('',#170);
#173=CARTESIAN_POINT('',(1.1E0,1.960297999455E-2,8.E-1));
#174=VERTEX_POINT('',#173);
#175=CARTESIAN_POINT('',(-1.1E0,1.960297999455E-2,8.E-1));
#176=VERTEX_POINT('',#175);
#177=CARTESIAN_POINT('',(1.1E0,5.803970200055E-1,8.E-1));
#178=VERTEX_POINT('',#177);
#179=CARTESIAN_POINT('',(1.6E0,5.803970200055E-1,8.E-1));
#180=VERTEX_POINT('',#179);
#181=CARTESIAN_POINT('',(-1.1E0,5.803970200055E-1,8.E-1));
#182=VERTEX_POINT('',#181);
#183=CARTESIAN_POINT('',(1.6E0,5.803970200055E-1,-8.E-1));
#184=VERTEX_POINT('',#183);
#185=CARTESIAN_POINT('',(1.1E0,1.960297999455E-2,-8.E-1));
#186=VERTEX_POINT('',#185);
#187=CARTESIAN_POINT('',(-1.1E0,1.960297999455E-2,-8.E-1));
#188=VERTEX_POINT('',#187);
#189=CARTESIAN_POINT('',(1.1E0,5.803970200055E-1,-8.E-1));
#190=VERTEX_POINT('',#189);
#191=CARTESIAN_POINT('',(-1.1E0,5.803970200055E-1,-8.E-1));
#192=VERTEX_POINT('',#191);
#193=CARTESIAN_POINT('',(0.E0,0.E0,0.E0));
#194=DIRECTION('',(0.E0,1.E0,0.E0));
#195=DIRECTION('',(1.E0,0.E0,0.E0));
#196=AXIS2_PLACEMENT_3D('',#193,#194,#195);
#197=PLANE('',#196);
#199=ORIENTED_EDGE('',*,*,#198,.F.);
#201=ORIENTED_EDGE('',*,*,#200,.T.);
#203=ORIENTED_EDGE('',*,*,#202,.T.);
#205=ORIENTED_EDGE('',*,*,#204,.T.);
#206=EDGE_LOOP('',(#199,#201,#203,#205));
#207=FACE_OUTER_BOUND('',#206,.F.);
#209=CARTESIAN_POINT('',(0.E0,0.E0,0.E0));
#210=DIRECTION('',(0.E0,1.E0,0.E0));
#211=DIRECTION('',(1.E0,0.E0,0.E0));
#212=AXIS2_PLACEMENT_3D('',#209,#210,#211);
#213=PLANE('',#212);
#215=ORIENTED_EDGE('',*,*,#214,.T.);
#217=ORIENTED_EDGE('',*,*,#216,.T.);
#219=ORIENTED_EDGE('',*,*,#218,.T.);
#221=ORIENTED_EDGE('',*,*,#220,.T.);
#222=EDGE_LOOP('',(#215,#217,#219,#221));
#223=FACE_OUTER_BOUND('',#222,.F.);
#225=CARTESIAN_POINT('',(1.1E0,0.E0,8.E-1));
#226=DIRECTION('',(1.E0,0.E0,0.E0));
#227=DIRECTION('',(0.E0,1.E0,0.E0));
#228=AXIS2_PLACEMENT_3D('',#225,#226,#227);
#229=PLANE('',#228);
#230=ORIENTED_EDGE('',*,*,#198,.T.);
#232=ORIENTED_EDGE('',*,*,#231,.T.);
#234=ORIENTED_EDGE('',*,*,#233,.F.);
#236=ORIENTED_EDGE('',*,*,#235,.F.);
#237=EDGE_LOOP('',(#230,#232,#234,#236));
#238=FACE_OUTER_BOUND('',#237,.F.);
#240=CARTESIAN_POINT('',(1.6E0,0.E0,-8.E-1));
#241=DIRECTION('',(0.E0,0.E0,-1.E0));
#242=DIRECTION('',(-1.E0,0.E0,0.E0));
#243=AXIS2_PLACEMENT_3D('',#240,#241,#242);
#244=PLANE('',#243);
#245=ORIENTED_EDGE('',*,*,#231,.F.);
#246=ORIENTED_EDGE('',*,*,#204,.F.);
#248=ORIENTED_EDGE('',*,*,#247,.T.);
#250=ORIENTED_EDGE('',*,*,#249,.T.);
#252=ORIENTED_EDGE('',*,*,#251,.F.);
#254=ORIENTED_EDGE('',*,*,#253,.T.);
#256=ORIENTED_EDGE('',*,*,#255,.F.);
#258=ORIENTED_EDGE('',*,*,#257,.F.);
#260=ORIENTED_EDGE('',*,*,#259,.F.);
#261=ORIENTED_EDGE('',*,*,#216,.F.);
#263=ORIENTED_EDGE('',*,*,#262,.T.);
#265=ORIENTED_EDGE('',*,*,#264,.F.);
#266=EDGE_LOOP('',(#245,#246,#248,#250,#252,#254,#256,#258,#260,#261,#263,
#265));
#267=FACE_OUTER_BOUND('',#266,.F.);
#269=CARTESIAN_POINT('',(1.6E0,0.E0,8.E-1));
#270=DIRECTION('',(1.E0,0.E0,0.E0));
#271=DIRECTION('',(0.E0,0.E0,-1.E0));
#272=AXIS2_PLACEMENT_3D('',#269,#270,#271);
#273=PLANE('',#272);
#275=ORIENTED_EDGE('',*,*,#274,.T.);
#276=ORIENTED_EDGE('',*,*,#247,.F.);
#277=ORIENTED_EDGE('',*,*,#202,.F.);
#279=ORIENTED_EDGE('',*,*,#278,.T.);
#280=EDGE_LOOP('',(#275,#276,#277,#279));
#281=FACE_OUTER_BOUND('',#280,.F.);
#283=CARTESIAN_POINT('',(1.1E0,5.803970200055E-1,8.E-1));
#284=DIRECTION('',(0.E0,-1.E0,0.E0));
#285=DIRECTION('',(1.E0,0.E0,0.E0));
#286=AXIS2_PLACEMENT_3D('',#283,#284,#285);
#287=PLANE('',#286);
#289=ORIENTED_EDGE('',*,*,#288,.T.);
#291=ORIENTED_EDGE('',*,*,#290,.T.);
#292=ORIENTED_EDGE('',*,*,#249,.F.);
#293=ORIENTED_EDGE('',*,*,#274,.F.);
#294=EDGE_LOOP('',(#289,#291,#292,#293));
#295=FACE_OUTER_BOUND('',#294,.F.);
#297=CARTESIAN_POINT('',(-1.6E0,0.E0,8.E-1));
#298=DIRECTION('',(0.E0,0.E0,1.E0));
#299=DIRECTION('',(1.E0,0.E0,0.E0));
#300=AXIS2_PLACEMENT_3D('',#297,#298,#299);
#301=PLANE('',#300);
#302=ORIENTED_EDGE('',*,*,#235,.T.);
#304=ORIENTED_EDGE('',*,*,#303,.T.);
#306=ORIENTED_EDGE('',*,*,#305,.F.);
#307=ORIENTED_EDGE('',*,*,#220,.F.);
#309=ORIENTED_EDGE('',*,*,#308,.T.);
#311=ORIENTED_EDGE('',*,*,#310,.T.);
#313=ORIENTED_EDGE('',*,*,#312,.T.);
#315=ORIENTED_EDGE('',*,*,#314,.T.);
#317=ORIENTED_EDGE('',*,*,#316,.T.);
#318=ORIENTED_EDGE('',*,*,#288,.F.);
#319=ORIENTED_EDGE('',*,*,#278,.F.);
#320=ORIENTED_EDGE('',*,*,#200,.F.);
#321=EDGE_LOOP('',(#302,#304,#306,#307,#309,#311,#313,#315,#317,#318,#319,
#320));
#322=FACE_OUTER_BOUND('',#321,.F.);
#324=CARTESIAN_POINT('',(1.1E0,1.960297999455E-2,8.E-1));
#325=DIRECTION('',(0.E0,1.E0,0.E0));
#326=DIRECTION('',(-1.E0,0.E0,0.E0));
#327=AXIS2_PLACEMENT_3D('',#324,#325,#326);
#328=PLANE('',#327);
#329=ORIENTED_EDGE('',*,*,#303,.F.);
#330=ORIENTED_EDGE('',*,*,#233,.T.);
#331=ORIENTED_EDGE('',*,*,#264,.T.);
#333=ORIENTED_EDGE('',*,*,#332,.F.);
#334=EDGE_LOOP('',(#329,#330,#331,#333));
#335=FACE_OUTER_BOUND('',#334,.F.);
#337=CARTESIAN_POINT('',(-1.1E0,1.960297999455E-2,8.E-1));
#338=DIRECTION('',(-1.E0,0.E0,0.E0));
#339=DIRECTION('',(0.E0,-1.E0,0.E0));
#340=AXIS2_PLACEMENT_3D('',#337,#338,#339);
#341=PLANE('',#340);
#342=ORIENTED_EDGE('',*,*,#214,.F.);
#343=ORIENTED_EDGE('',*,*,#305,.T.);
#344=ORIENTED_EDGE('',*,*,#332,.T.);
#345=ORIENTED_EDGE('',*,*,#262,.F.);
#346=EDGE_LOOP('',(#342,#343,#344,#345));
#347=FACE_OUTER_BOUND('',#346,.F.);
#349=CARTESIAN_POINT('',(-1.6E0,0.E0,-8.E-1));
#350=DIRECTION('',(-1.E0,0.E0,0.E0));
#351=DIRECTION('',(0.E0,0.E0,1.E0));
#352=AXIS2_PLACEMENT_3D('',#349,#350,#351);
#353=PLANE('',#352);
#355=ORIENTED_EDGE('',*,*,#354,.T.);
#356=ORIENTED_EDGE('',*,*,#308,.F.);
#357=ORIENTED_EDGE('',*,*,#218,.F.);
#358=ORIENTED_EDGE('',*,*,#259,.T.);
#359=EDGE_LOOP('',(#355,#356,#357,#358));
#360=FACE_OUTER_BOUND('',#359,.F.);
#362=CARTESIAN_POINT('',(-1.6E0,5.803970200055E-1,8.E-1));
#363=DIRECTION('',(0.E0,-1.E0,0.E0));
#364=DIRECTION('',(1.E0,0.E0,0.E0));
#365=AXIS2_PLACEMENT_3D('',#362,#363,#364);
#366=PLANE('',#365);
#367=ORIENTED_EDGE('',*,*,#354,.F.);
#368=ORIENTED_EDGE('',*,*,#257,.T.);
#370=ORIENTED_EDGE('',*,*,#369,.F.);
#371=ORIENTED_EDGE('',*,*,#310,.F.);
#372=EDGE_LOOP('',(#367,#368,#370,#371));
#373=FACE_OUTER_BOUND('',#372,.F.);
#375=CARTESIAN_POINT('',(-1.1E0,5.803970200055E-1,8.E-1));
#376=DIRECTION('',(7.071067811865E-1,-7.071067811865E-1,0.E0));
#377=DIRECTION('',(7.071067811865E-1,7.071067811865E-1,0.E0));
#378=AXIS2_PLACEMENT_3D('',#375,#376,#377);
#379=PLANE('',#378);
#381=ORIENTED_EDGE('',*,*,#380,.F.);
#382=ORIENTED_EDGE('',*,*,#312,.F.);
#383=ORIENTED_EDGE('',*,*,#369,.T.);
#384=ORIENTED_EDGE('',*,*,#255,.T.);
#385=EDGE_LOOP('',(#381,#382,#383,#384));
#386=FACE_OUTER_BOUND('',#385,.F.);
#388=CARTESIAN_POINT('',(0.E0,6.E-1,0.E0));
#389=DIRECTION('',(0.E0,1.E0,0.E0));
#390=DIRECTION('',(1.E0,0.E0,0.E0));
#391=AXIS2_PLACEMENT_3D('',#388,#389,#390);
#392=PLANE('',#391);
#394=ORIENTED_EDGE('',*,*,#393,.F.);
#395=ORIENTED_EDGE('',*,*,#314,.F.);
#396=ORIENTED_EDGE('',*,*,#380,.T.);
#397=ORIENTED_EDGE('',*,*,#253,.F.);
#398=EDGE_LOOP('',(#394,#395,#396,#397));
#399=FACE_OUTER_BOUND('',#398,.F.);
#401=CARTESIAN_POINT('',(1.080397020005E0,6.E-1,8.E-1));
#402=DIRECTION('',(-7.071067811865E-1,-7.071067811865E-1,0.E0));
#403=DIRECTION('',(7.071067811865E-1,-7.071067811865E-1,0.E0));
#404=AXIS2_PLACEMENT_3D('',#401,#402,#403);
#405=PLANE('',#404);
#406=ORIENTED_EDGE('',*,*,#393,.T.);
#407=ORIENTED_EDGE('',*,*,#251,.T.);
#408=ORIENTED_EDGE('',*,*,#290,.F.);
#409=ORIENTED_EDGE('',*,*,#316,.F.);
#410=EDGE_LOOP('',(#406,#407,#408,#409));
#411=FACE_OUTER_BOUND('',#410,.F.);
#413=CLOSED_SHELL('',(#208,#224,#239,#268,#282,#296,#323,#336,#348,#361,#374,
#387,#400,#412));
#414=MANIFOLD_SOLID_BREP('',#413);
#416=DIMENSIONAL_EXPONENTS(0.E0,0.E0,0.E0,0.E0,0.E0,0.E0,0.E0);
#418=PLANE_ANGLE_MEASURE_WITH_UNIT(PLANE_ANGLE_MEASURE(1.745329251994E-2),#417);
#419=(CONVERSION_BASED_UNIT('DEGREE',#418)NAMED_UNIT(*)PLANE_ANGLE_UNIT());
#421=UNCERTAINTY_MEASURE_WITH_UNIT(LENGTH_MEASURE(1.511469301078E-4),#415,
'closure',
'Maximum model space distance between geometric entities at asserted connectivities');
#424=APPLICATION_CONTEXT(
'CONFIGURATION CONTROLLED 3D DESIGNS OF MECHANICAL PARTS AND ASSEMBLIES');
#425=APPLICATION_PROTOCOL_DEFINITION('international standard',
'config_control_design',1994,#424);
#426=DESIGN_CONTEXT('',#424,'design');
#427=MECHANICAL_CONTEXT('',#424,'mechanical');
#428=PRODUCT('CR2512','CR2512','NOT SPECIFIED',(#427));
#429=PRODUCT_DEFINITION_FORMATION_WITH_SPECIFIED_SOURCE('1','LAST_VERSION',#428,
.MADE.);
#433=PRODUCT_CATEGORY('part','');
#434=PRODUCT_RELATED_PRODUCT_CATEGORY('detail','',(#428));
#435=PRODUCT_CATEGORY_RELATIONSHIP('','',#433,#434);
#436=SECURITY_CLASSIFICATION_LEVEL('unclassified');
#437=SECURITY_CLASSIFICATION('','',#436);
#438=CC_DESIGN_SECURITY_CLASSIFICATION(#437,(#429));
#439=APPROVAL_STATUS('approved');
#440=APPROVAL(#439,'');
#441=CC_DESIGN_APPROVAL(#440,(#437,#429,#430));
#442=CALENDAR_DATE(112,17,8);
#443=COORDINATED_UNIVERSAL_TIME_OFFSET(7,0,.BEHIND.);
#444=LOCAL_TIME(8,30,5.7E1,#443);
#445=DATE_AND_TIME(#442,#444);
#446=APPROVAL_DATE_TIME(#445,#440);
#447=DATE_TIME_ROLE('creation_date');
#448=CC_DESIGN_DATE_AND_TIME_ASSIGNMENT(#445,#447,(#430));
#449=DATE_TIME_ROLE('classification_date');
#450=CC_DESIGN_DATE_AND_TIME_ASSIGNMENT(#445,#449,(#437));
#451=PERSON('UNSPECIFIED','UNSPECIFIED',$,$,$,$);
#452=ORGANIZATION('UNSPECIFIED','UNSPECIFIED','UNSPECIFIED');
#453=PERSON_AND_ORGANIZATION(#451,#452);
#454=APPROVAL_ROLE('approver');
#455=APPROVAL_PERSON_ORGANIZATION(#453,#440,#454);
#456=PERSON_AND_ORGANIZATION_ROLE('creator');
#457=CC_DESIGN_PERSON_AND_ORGANIZATION_ASSIGNMENT(#453,#456,(#429,#430));
#458=PERSON_AND_ORGANIZATION_ROLE('design_supplier');
#459=CC_DESIGN_PERSON_AND_ORGANIZATION_ASSIGNMENT(#453,#458,(#429));
#460=PERSON_AND_ORGANIZATION_ROLE('classification_officer');
#461=CC_DESIGN_PERSON_AND_ORGANIZATION_ASSIGNMENT(#453,#460,(#437));
#462=PERSON_AND_ORGANIZATION_ROLE('design_owner');
#463=CC_DESIGN_PERSON_AND_ORGANIZATION_ASSIGNMENT(#453,#462,(#428));
#198=EDGE_CURVE('',#155,#156,#4,.T.);
#200=EDGE_CURVE('',#155,#151,#8,.T.);
#202=EDGE_CURVE('',#151,#152,#12,.T.);
#204=EDGE_CURVE('',#152,#156,#16,.T.);
#208=ADVANCED_FACE('',(#207),#197,.F.);
#214=EDGE_CURVE('',#159,#160,#20,.T.);
#216=EDGE_CURVE('',#160,#147,#24,.T.);
#218=EDGE_CURVE('',#147,#148,#28,.T.);
#220=EDGE_CURVE('',#148,#159,#32,.T.);
#224=ADVANCED_FACE('',(#223),#213,.F.);
#231=EDGE_CURVE('',#156,#186,#36,.T.);
#233=EDGE_CURVE('',#174,#186,#112,.T.);
#235=EDGE_CURVE('',#155,#174,#80,.T.);
#239=ADVANCED_FACE('',(#238),#229,.F.);
#247=EDGE_CURVE('',#152,#184,#40,.T.);
#249=EDGE_CURVE('',#184,#190,#44,.T.);
#251=EDGE_CURVE('',#164,#190,#48,.T.);
#253=EDGE_CURVE('',#164,#168,#144,.T.);
#255=EDGE_CURVE('',#192,#168,#52,.T.);
#257=EDGE_CURVE('',#171,#192,#56,.T.);
#259=EDGE_CURVE('',#147,#171,#124,.T.);
#262=EDGE_CURVE('',#160,#188,#60,.T.);
#264=EDGE_CURVE('',#186,#188,#64,.T.);
#268=ADVANCED_FACE('',(#267),#244,.T.);
#274=EDGE_CURVE('',#180,#184,#68,.T.);
#278=EDGE_CURVE('',#151,#180,#72,.T.);
#282=ADVANCED_FACE('',(#281),#273,.T.);
#288=EDGE_CURVE('',#180,#178,#108,.T.);
#290=EDGE_CURVE('',#178,#190,#76,.T.);
#296=ADVANCED_FACE('',(#295),#287,.F.);
#303=EDGE_CURVE('',#174,#176,#84,.T.);
#305=EDGE_CURVE('',#159,#176,#88,.T.);
#308=EDGE_CURVE('',#148,#172,#92,.T.);
#310=EDGE_CURVE('',#172,#182,#96,.T.);
#312=EDGE_CURVE('',#182,#167,#100,.T.);
#314=EDGE_CURVE('',#167,#163,#136,.T.);
#316=EDGE_CURVE('',#163,#178,#104,.T.);
#323=ADVANCED_FACE('',(#322),#301,.T.);
#332=EDGE_CURVE('',#176,#188,#116,.T.);
#336=ADVANCED_FACE('',(#335),#328,.F.);
#348=ADVANCED_FACE('',(#347),#341,.F.);
#354=EDGE_CURVE('',#171,#172,#120,.T.);
#361=ADVANCED_FACE('',(#360),#353,.T.);
#369=EDGE_CURVE('',#182,#192,#128,.T.);
#374=ADVANCED_FACE('',(#373),#366,.F.);
#380=EDGE_CURVE('',#167,#168,#140,.T.);
#387=ADVANCED_FACE('',(#386),#379,.F.);
#393=EDGE_CURVE('',#163,#164,#132,.T.);
#400=ADVANCED_FACE('',(#399),#392,.T.);
#412=ADVANCED_FACE('',(#411),#405,.F.);
#415=(LENGTH_UNIT()NAMED_UNIT(*)SI_UNIT(.MILLI.,.METRE.));
#417=(NAMED_UNIT(*)PLANE_ANGLE_UNIT()SI_UNIT($,.RADIAN.));
#420=(NAMED_UNIT(*)SI_UNIT($,.STERADIAN.)SOLID_ANGLE_UNIT());
#422=(GEOMETRIC_REPRESENTATION_CONTEXT(3)GLOBAL_UNCERTAINTY_ASSIGNED_CONTEXT((
#421))GLOBAL_UNIT_ASSIGNED_CONTEXT((#415,#419,#420))REPRESENTATION_CONTEXT
('ID1','3'));
#423=ADVANCED_BREP_SHAPE_REPRESENTATION('',(#414),#422);
#430=PRODUCT_DEFINITION('design','',#429,#426);
#431=PRODUCT_DEFINITION_SHAPE('','SHAPE FOR CR2512.',#430);
#432=SHAPE_DEFINITION_REPRESENTATION(#431,#423);
ENDSEC;
END-ISO-10303-21;
