ISO-10303-21;
HEADER;
FILE_DESCRIPTION((''),'2;1');
FILE_NAME('CMH322522','2012-08-01T',('ryans'),('Bourns, Inc.'),
'PRO/ENGINEER BY PARAMETRIC TECHNOLOGY CORPORATION, 2010100',
'PRO/ENGINEER BY PARAMETRIC TECHNOLOGY CORPORATION, 2010100','');
FILE_SCHEMA(('CONFIG_CONTROL_DESIGN'));
ENDSEC;
DATA;
#1=DIRECTION('',(0.E0,-1.E0,0.E0));
#2=VECTOR('',#1,2.1E0);
#3=CARTESIAN_POINT('',(-1.5E0,1.05E0,-1.25E0));
#4=LINE('',#3,#2);
#5=DIRECTION('',(1.E0,0.E0,0.E0));
#6=VECTOR('',#5,3.E0);
#7=CARTESIAN_POINT('',(-1.5E0,-1.05E0,-1.25E0));
#8=LINE('',#7,#6);
#9=DIRECTION('',(0.E0,1.E0,0.E0));
#10=VECTOR('',#9,2.1E0);
#11=CARTESIAN_POINT('',(1.5E0,-1.05E0,-1.25E0));
#12=LINE('',#11,#10);
#13=DIRECTION('',(-1.E0,0.E0,0.E0));
#14=VECTOR('',#13,3.E0);
#15=CARTESIAN_POINT('',(1.5E0,1.05E0,-1.25E0));
#16=LINE('',#15,#14);
#17=DIRECTION('',(0.E0,1.E0,0.E0));
#18=VECTOR('',#17,5.E-1);
#19=CARTESIAN_POINT('',(-1.5E0,-1.05E0,-9.5E-1));
#20=LINE('',#19,#18);
#21=DIRECTION('',(0.E0,0.E0,1.E0));
#22=VECTOR('',#21,2.5E0);
#23=CARTESIAN_POINT('',(-1.5E0,1.05E0,-1.25E0));
#24=LINE('',#23,#22);
#25=DIRECTION('',(0.E0,1.E0,0.E0));
#26=VECTOR('',#25,5.E-1);
#27=CARTESIAN_POINT('',(-1.5E0,-1.05E0,9.5E-1));
#28=LINE('',#27,#26);
#29=DIRECTION('',(0.E0,0.E0,1.E0));
#30=VECTOR('',#29,1.9E0);
#31=CARTESIAN_POINT('',(-1.5E0,-5.5E-1,-9.5E-1));
#32=LINE('',#31,#30);
#33=CARTESIAN_POINT('',(1.5E0,-1.05E0,-9.5E-1));
#34=DIRECTION('',(0.E0,0.E0,-1.E0));
#35=DIRECTION('',(1.E0,0.E0,0.E0));
#36=AXIS2_PLACEMENT_3D('',#33,#34,#35);
#38=DIRECTION('',(0.E0,1.E0,0.E0));
#39=VECTOR('',#38,5.E-1);
#40=CARTESIAN_POINT('',(1.6E0,-1.05E0,-9.5E-1));
#41=LINE('',#40,#39);
#42=DIRECTION('',(-1.E0,0.E0,0.E0));
#43=VECTOR('',#42,1.E-1);
#44=CARTESIAN_POINT('',(1.6E0,-5.5E-1,-9.5E-1));
#45=LINE('',#44,#43);
#46=DIRECTION('',(0.E0,-1.E0,0.E0));
#47=VECTOR('',#46,1.E-1);
#48=CARTESIAN_POINT('',(1.1E0,-1.05E0,-9.5E-1));
#49=LINE('',#48,#47);
#50=DIRECTION('',(1.E0,0.E0,0.E0));
#51=VECTOR('',#50,4.E-1);
#52=CARTESIAN_POINT('',(1.1E0,-1.15E0,-9.5E-1));
#53=LINE('',#52,#51);
#54=CARTESIAN_POINT('',(-1.5E0,-1.05E0,-9.5E-1));
#55=DIRECTION('',(0.E0,0.E0,-1.E0));
#56=DIRECTION('',(0.E0,-1.E0,0.E0));
#57=AXIS2_PLACEMENT_3D('',#54,#55,#56);
#59=DIRECTION('',(1.E0,0.E0,0.E0));
#60=VECTOR('',#59,4.E-1);
#61=CARTESIAN_POINT('',(-1.5E0,-1.15E0,-9.5E-1));
#62=LINE('',#61,#60);
#63=DIRECTION('',(0.E0,1.E0,0.E0));
#64=VECTOR('',#63,1.E-1);
#65=CARTESIAN_POINT('',(-1.1E0,-1.15E0,-9.5E-1));
#66=LINE('',#65,#64);
#67=DIRECTION('',(-1.E0,0.E0,0.E0));
#68=VECTOR('',#67,1.E-1);
#69=CARTESIAN_POINT('',(-1.5E0,-5.5E-1,-9.5E-1));
#70=LINE('',#69,#68);
#71=DIRECTION('',(0.E0,-1.E0,0.E0));
#72=VECTOR('',#71,5.E-1);
#73=CARTESIAN_POINT('',(-1.6E0,-5.5E-1,-9.5E-1));
#74=LINE('',#73,#72);
#75=DIRECTION('',(0.E0,0.E0,-1.E0));
#76=VECTOR('',#75,1.9E0);
#77=CARTESIAN_POINT('',(1.5E0,-1.15E0,9.5E-1));
#78=LINE('',#77,#76);
#79=DIRECTION('',(0.E0,0.E0,1.E0));
#80=VECTOR('',#79,1.9E0);
#81=CARTESIAN_POINT('',(1.1E0,-1.15E0,-9.5E-1));
#82=LINE('',#81,#80);
#83=DIRECTION('',(1.E0,0.E0,0.E0));
#84=VECTOR('',#83,4.E-1);
#85=CARTESIAN_POINT('',(-1.5E0,-1.05E0,-9.5E-1));
#86=LINE('',#85,#84);
#87=DIRECTION('',(0.E0,0.E0,1.E0));
#88=VECTOR('',#87,1.9E0);
#89=CARTESIAN_POINT('',(-1.1E0,-1.05E0,-9.5E-1));
#90=LINE('',#89,#88);
#91=DIRECTION('',(1.E0,0.E0,0.E0));
#92=VECTOR('',#91,4.E-1);
#93=CARTESIAN_POINT('',(-1.5E0,-1.05E0,9.5E-1));
#94=LINE('',#93,#92);
#95=DIRECTION('',(0.E0,0.E0,1.E0));
#96=VECTOR('',#95,3.E-1);
#97=CARTESIAN_POINT('',(-1.5E0,-1.05E0,9.5E-1));
#98=LINE('',#97,#96);
#99=DIRECTION('',(1.E0,0.E0,0.E0));
#100=VECTOR('',#99,4.E-1);
#101=CARTESIAN_POINT('',(1.1E0,-1.05E0,9.5E-1));
#102=LINE('',#101,#100);
#103=DIRECTION('',(0.E0,0.E0,1.E0));
#104=VECTOR('',#103,1.9E0);
#105=CARTESIAN_POINT('',(1.1E0,-1.05E0,-9.5E-1));
#106=LINE('',#105,#104);
#107=DIRECTION('',(1.E0,0.E0,0.E0));
#108=VECTOR('',#107,4.E-1);
#109=CARTESIAN_POINT('',(1.1E0,-1.05E0,-9.5E-1));
#110=LINE('',#109,#108);
#111=DIRECTION('',(0.E0,0.E0,1.E0));
#112=VECTOR('',#111,3.E-1);
#113=CARTESIAN_POINT('',(-1.5E0,-1.05E0,-1.25E0));
#114=LINE('',#113,#112);
#115=DIRECTION('',(0.E0,0.E0,1.E0));
#116=VECTOR('',#115,1.9E0);
#117=CARTESIAN_POINT('',(-1.1E0,-1.15E0,-9.5E-1));
#118=LINE('',#117,#116);
#119=DIRECTION('',(0.E0,0.E0,-1.E0));
#120=VECTOR('',#119,1.9E0);
#121=CARTESIAN_POINT('',(-1.5E0,-1.15E0,9.5E-1));
#122=LINE('',#121,#120);
#123=DIRECTION('',(0.E0,0.E0,-1.E0));
#124=VECTOR('',#123,1.9E0);
#125=CARTESIAN_POINT('',(-1.6E0,-1.05E0,9.5E-1));
#126=LINE('',#125,#124);
#127=DIRECTION('',(0.E0,0.E0,1.E0));
#128=VECTOR('',#127,1.9E0);
#129=CARTESIAN_POINT('',(-1.6E0,-5.5E-1,-9.5E-1));
#130=LINE('',#129,#128);
#131=CARTESIAN_POINT('',(1.5E0,-1.05E0,9.5E-1));
#132=DIRECTION('',(0.E0,0.E0,1.E0));
#133=DIRECTION('',(0.E0,-1.E0,0.E0));
#134=AXIS2_PLACEMENT_3D('',#131,#132,#133);
#136=DIRECTION('',(1.E0,0.E0,0.E0));
#137=VECTOR('',#136,4.E-1);
#138=CARTESIAN_POINT('',(1.1E0,-1.15E0,9.5E-1));
#139=LINE('',#138,#137);
#140=DIRECTION('',(0.E0,-1.E0,0.E0));
#141=VECTOR('',#140,1.E-1);
#142=CARTESIAN_POINT('',(1.1E0,-1.05E0,9.5E-1));
#143=LINE('',#142,#141);
#144=DIRECTION('',(-1.E0,0.E0,0.E0));
#145=VECTOR('',#144,1.E-1);
#146=CARTESIAN_POINT('',(1.6E0,-5.5E-1,9.5E-1));
#147=LINE('',#146,#145);
#148=DIRECTION('',(0.E0,1.E0,0.E0));
#149=VECTOR('',#148,5.E-1);
#150=CARTESIAN_POINT('',(1.6E0,-1.05E0,9.5E-1));
#151=LINE('',#150,#149);
#152=CARTESIAN_POINT('',(-1.5E0,-1.05E0,9.5E-1));
#153=DIRECTION('',(0.E0,0.E0,1.E0));
#154=DIRECTION('',(-1.E0,0.E0,0.E0));
#155=AXIS2_PLACEMENT_3D('',#152,#153,#154);
#157=DIRECTION('',(0.E0,-1.E0,0.E0));
#158=VECTOR('',#157,5.E-1);
#159=CARTESIAN_POINT('',(-1.6E0,-5.5E-1,9.5E-1));
#160=LINE('',#159,#158);
#161=DIRECTION('',(-1.E0,0.E0,0.E0));
#162=VECTOR('',#161,1.E-1);
#163=CARTESIAN_POINT('',(-1.5E0,-5.5E-1,9.5E-1));
#164=LINE('',#163,#162);
#165=DIRECTION('',(0.E0,1.E0,0.E0));
#166=VECTOR('',#165,1.E-1);
#167=CARTESIAN_POINT('',(-1.1E0,-1.15E0,9.5E-1));
#168=LINE('',#167,#166);
#169=DIRECTION('',(1.E0,0.E0,0.E0));
#170=VECTOR('',#169,4.E-1);
#171=CARTESIAN_POINT('',(-1.5E0,-1.15E0,9.5E-1));
#172=LINE('',#171,#170);
#173=DIRECTION('',(0.E0,1.E0,0.E0));
#174=VECTOR('',#173,5.E-1);
#175=CARTESIAN_POINT('',(1.5E0,-1.05E0,-9.5E-1));
#176=LINE('',#175,#174);
#177=DIRECTION('',(0.E0,0.E0,1.E0));
#178=VECTOR('',#177,1.9E0);
#179=CARTESIAN_POINT('',(1.5E0,-5.5E-1,-9.5E-1));
#180=LINE('',#179,#178);
#181=DIRECTION('',(0.E0,1.E0,0.E0));
#182=VECTOR('',#181,5.E-1);
#183=CARTESIAN_POINT('',(1.5E0,-1.05E0,9.5E-1));
#184=LINE('',#183,#182);
#185=DIRECTION('',(0.E0,0.E0,1.E0));
#186=VECTOR('',#185,3.E-1);
#187=CARTESIAN_POINT('',(1.5E0,-1.05E0,9.5E-1));
#188=LINE('',#187,#186);
#189=DIRECTION('',(0.E0,0.E0,1.E0));
#190=VECTOR('',#189,3.E-1);
#191=CARTESIAN_POINT('',(1.5E0,-1.05E0,-1.25E0));
#192=LINE('',#191,#190);
#193=DIRECTION('',(0.E0,0.E0,1.E0));
#194=VECTOR('',#193,1.9E0);
#195=CARTESIAN_POINT('',(1.6E0,-5.5E-1,-9.5E-1));
#196=LINE('',#195,#194);
#197=DIRECTION('',(0.E0,0.E0,-1.E0));
#198=VECTOR('',#197,1.9E0);
#199=CARTESIAN_POINT('',(1.6E0,-1.05E0,9.5E-1));
#200=LINE('',#199,#198);
#201=DIRECTION('',(0.E0,-1.E0,0.E0));
#202=VECTOR('',#201,2.1E0);
#203=CARTESIAN_POINT('',(-1.5E0,1.05E0,1.25E0));
#204=LINE('',#203,#202);
#205=DIRECTION('',(-1.E0,0.E0,0.E0));
#206=VECTOR('',#205,3.E0);
#207=CARTESIAN_POINT('',(1.5E0,1.05E0,1.25E0));
#208=LINE('',#207,#206);
#209=DIRECTION('',(0.E0,1.E0,0.E0));
#210=VECTOR('',#209,2.1E0);
#211=CARTESIAN_POINT('',(1.5E0,-1.05E0,1.25E0));
#212=LINE('',#211,#210);
#213=DIRECTION('',(1.E0,0.E0,0.E0));
#214=VECTOR('',#213,3.E0);
#215=CARTESIAN_POINT('',(-1.5E0,-1.05E0,1.25E0));
#216=LINE('',#215,#214);
#217=DIRECTION('',(0.E0,0.E0,1.E0));
#218=VECTOR('',#217,2.5E0);
#219=CARTESIAN_POINT('',(1.5E0,1.05E0,-1.25E0));
#220=LINE('',#219,#218);
#221=CARTESIAN_POINT('',(-1.5E0,1.05E0,-1.25E0));
#222=CARTESIAN_POINT('',(-1.5E0,-1.05E0,-1.25E0));
#223=VERTEX_POINT('',#221);
#224=VERTEX_POINT('',#222);
#225=CARTESIAN_POINT('',(1.5E0,-1.05E0,-1.25E0));
#226=VERTEX_POINT('',#225);
#227=CARTESIAN_POINT('',(1.5E0,1.05E0,-1.25E0));
#228=VERTEX_POINT('',#227);
#229=CARTESIAN_POINT('',(-1.5E0,1.05E0,1.25E0));
#230=CARTESIAN_POINT('',(-1.5E0,-1.05E0,1.25E0));
#231=VERTEX_POINT('',#229);
#232=VERTEX_POINT('',#230);
#233=CARTESIAN_POINT('',(1.5E0,-1.05E0,1.25E0));
#234=VERTEX_POINT('',#233);
#235=CARTESIAN_POINT('',(1.5E0,1.05E0,1.25E0));
#236=VERTEX_POINT('',#235);
#237=CARTESIAN_POINT('',(1.1E0,-1.15E0,-9.5E-1));
#238=CARTESIAN_POINT('',(1.1E0,-1.15E0,9.5E-1));
#239=VERTEX_POINT('',#237);
#240=VERTEX_POINT('',#238);
#241=CARTESIAN_POINT('',(1.6E0,-5.5E-1,-9.5E-1));
#242=CARTESIAN_POINT('',(1.6E0,-5.5E-1,9.5E-1));
#243=VERTEX_POINT('',#241);
#244=VERTEX_POINT('',#242);
#245=CARTESIAN_POINT('',(-1.6E0,-5.5E-1,-9.5E-1));
#246=CARTESIAN_POINT('',(-1.6E0,-5.5E-1,9.5E-1));
#247=VERTEX_POINT('',#245);
#248=VERTEX_POINT('',#246);
#249=CARTESIAN_POINT('',(-1.1E0,-1.15E0,-9.5E-1));
#250=CARTESIAN_POINT('',(-1.1E0,-1.15E0,9.5E-1));
#251=VERTEX_POINT('',#249);
#252=VERTEX_POINT('',#250);
#253=CARTESIAN_POINT('',(-1.5E0,-1.05E0,-9.5E-1));
#254=CARTESIAN_POINT('',(-1.5E0,-5.5E-1,-9.5E-1));
#255=VERTEX_POINT('',#253);
#256=VERTEX_POINT('',#254);
#257=CARTESIAN_POINT('',(-1.5E0,-1.05E0,9.5E-1));
#258=CARTESIAN_POINT('',(-1.5E0,-5.5E-1,9.5E-1));
#259=VERTEX_POINT('',#257);
#260=VERTEX_POINT('',#258);
#261=CARTESIAN_POINT('',(-1.1E0,-1.05E0,-9.5E-1));
#262=VERTEX_POINT('',#261);
#263=CARTESIAN_POINT('',(1.1E0,-1.05E0,-9.5E-1));
#264=CARTESIAN_POINT('',(1.5E0,-1.05E0,-9.5E-1));
#265=VERTEX_POINT('',#263);
#266=VERTEX_POINT('',#264);
#267=CARTESIAN_POINT('',(-1.1E0,-1.05E0,9.5E-1));
#268=VERTEX_POINT('',#267);
#269=CARTESIAN_POINT('',(1.1E0,-1.05E0,9.5E-1));
#270=CARTESIAN_POINT('',(1.5E0,-1.05E0,9.5E-1));
#271=VERTEX_POINT('',#269);
#272=VERTEX_POINT('',#270);
#273=CARTESIAN_POINT('',(1.5E0,-5.5E-1,-9.5E-1));
#274=VERTEX_POINT('',#273);
#275=CARTESIAN_POINT('',(1.5E0,-5.5E-1,9.5E-1));
#276=VERTEX_POINT('',#275);
#277=CARTESIAN_POINT('',(1.6E0,-1.05E0,-9.5E-1));
#278=CARTESIAN_POINT('',(1.5E0,-1.15E0,-9.5E-1));
#279=VERTEX_POINT('',#277);
#280=VERTEX_POINT('',#278);
#281=CARTESIAN_POINT('',(1.5E0,-1.15E0,9.5E-1));
#282=VERTEX_POINT('',#281);
#283=CARTESIAN_POINT('',(1.6E0,-1.05E0,9.5E-1));
#284=VERTEX_POINT('',#283);
#285=CARTESIAN_POINT('',(-1.5E0,-1.15E0,-9.5E-1));
#286=CARTESIAN_POINT('',(-1.6E0,-1.05E0,-9.5E-1));
#287=VERTEX_POINT('',#285);
#288=VERTEX_POINT('',#286);
#289=CARTESIAN_POINT('',(-1.6E0,-1.05E0,9.5E-1));
#290=VERTEX_POINT('',#289);
#291=CARTESIAN_POINT('',(-1.5E0,-1.15E0,9.5E-1));
#292=VERTEX_POINT('',#291);
#293=CARTESIAN_POINT('',(0.E0,0.E0,-1.25E0));
#294=DIRECTION('',(0.E0,0.E0,1.E0));
#295=DIRECTION('',(1.E0,0.E0,0.E0));
#296=AXIS2_PLACEMENT_3D('',#293,#294,#295);
#297=PLANE('',#296);
#299=ORIENTED_EDGE('',*,*,#298,.T.);
#301=ORIENTED_EDGE('',*,*,#300,.T.);
#303=ORIENTED_EDGE('',*,*,#302,.T.);
#305=ORIENTED_EDGE('',*,*,#304,.T.);
#306=EDGE_LOOP('',(#299,#301,#303,#305));
#307=FACE_OUTER_BOUND('',#306,.F.);
#309=CARTESIAN_POINT('',(-1.5E0,1.05E0,-1.25E0));
#310=DIRECTION('',(-1.E0,0.E0,0.E0));
#311=DIRECTION('',(0.E0,-1.E0,0.E0));
#312=AXIS2_PLACEMENT_3D('',#309,#310,#311);
#313=PLANE('',#312);
#315=ORIENTED_EDGE('',*,*,#314,.F.);
#317=ORIENTED_EDGE('',*,*,#316,.F.);
#318=ORIENTED_EDGE('',*,*,#298,.F.);
#320=ORIENTED_EDGE('',*,*,#319,.T.);
#322=ORIENTED_EDGE('',*,*,#321,.T.);
#324=ORIENTED_EDGE('',*,*,#323,.F.);
#326=ORIENTED_EDGE('',*,*,#325,.T.);
#328=ORIENTED_EDGE('',*,*,#327,.F.);
#329=EDGE_LOOP('',(#315,#317,#318,#320,#322,#324,#326,#328));
#330=FACE_OUTER_BOUND('',#329,.F.);
#332=CARTESIAN_POINT('',(0.E0,0.E0,-9.5E-1));
#333=DIRECTION('',(0.E0,0.E0,1.E0));
#334=DIRECTION('',(1.E0,0.E0,0.E0));
#335=AXIS2_PLACEMENT_3D('',#332,#333,#334);
#336=PLANE('',#335);
#338=ORIENTED_EDGE('',*,*,#337,.F.);
#340=ORIENTED_EDGE('',*,*,#339,.T.);
#342=ORIENTED_EDGE('',*,*,#341,.T.);
#344=ORIENTED_EDGE('',*,*,#343,.F.);
#346=ORIENTED_EDGE('',*,*,#345,.F.);
#348=ORIENTED_EDGE('',*,*,#347,.T.);
#350=ORIENTED_EDGE('',*,*,#349,.T.);
#351=EDGE_LOOP('',(#338,#340,#342,#344,#346,#348,#350));
#352=FACE_OUTER_BOUND('',#351,.F.);
#354=CARTESIAN_POINT('',(0.E0,0.E0,-9.5E-1));
#355=DIRECTION('',(0.E0,0.E0,1.E0));
#356=DIRECTION('',(1.E0,0.E0,0.E0));
#357=AXIS2_PLACEMENT_3D('',#354,#355,#356);
#358=PLANE('',#357);
#360=ORIENTED_EDGE('',*,*,#359,.F.);
#362=ORIENTED_EDGE('',*,*,#361,.T.);
#364=ORIENTED_EDGE('',*,*,#363,.T.);
#366=ORIENTED_EDGE('',*,*,#365,.F.);
#367=ORIENTED_EDGE('',*,*,#314,.T.);
#369=ORIENTED_EDGE('',*,*,#368,.T.);
#371=ORIENTED_EDGE('',*,*,#370,.T.);
#372=EDGE_LOOP('',(#360,#362,#364,#366,#367,#369,#371));
#373=FACE_OUTER_BOUND('',#372,.F.);
#375=CARTESIAN_POINT('',(1.5E0,-1.05E0,4.509E0));
#376=DIRECTION('',(0.E0,0.E0,-1.E0));
#377=DIRECTION('',(1.E0,0.E0,0.E0));
#378=AXIS2_PLACEMENT_3D('',#375,#376,#377);
#379=CYLINDRICAL_SURFACE('',#378,1.E-1);
#380=ORIENTED_EDGE('',*,*,#337,.T.);
#382=ORIENTED_EDGE('',*,*,#381,.F.);
#384=ORIENTED_EDGE('',*,*,#383,.T.);
#386=ORIENTED_EDGE('',*,*,#385,.T.);
#387=EDGE_LOOP('',(#380,#382,#384,#386));
#388=FACE_OUTER_BOUND('',#387,.F.);
#390=CARTESIAN_POINT('',(1.1E0,-1.15E0,-9.5E-1));
#391=DIRECTION('',(0.E0,-1.E0,0.E0));
#392=DIRECTION('',(1.E0,0.E0,0.E0));
#393=AXIS2_PLACEMENT_3D('',#390,#391,#392);
#394=PLANE('',#393);
#395=ORIENTED_EDGE('',*,*,#381,.T.);
#396=ORIENTED_EDGE('',*,*,#349,.F.);
#398=ORIENTED_EDGE('',*,*,#397,.T.);
#400=ORIENTED_EDGE('',*,*,#399,.T.);
#401=EDGE_LOOP('',(#395,#396,#398,#400));
#402=FACE_OUTER_BOUND('',#401,.F.);
#404=CARTESIAN_POINT('',(1.1E0,-5.5E-1,-9.5E-1));
#405=DIRECTION('',(-1.E0,0.E0,0.E0));
#406=DIRECTION('',(0.E0,-1.E0,0.E0));
#407=AXIS2_PLACEMENT_3D('',#404,#405,#406);
#408=PLANE('',#407);
#410=ORIENTED_EDGE('',*,*,#409,.T.);
#412=ORIENTED_EDGE('',*,*,#411,.T.);
#413=ORIENTED_EDGE('',*,*,#397,.F.);
#414=ORIENTED_EDGE('',*,*,#347,.F.);
#415=EDGE_LOOP('',(#410,#412,#413,#414));
#416=FACE_OUTER_BOUND('',#415,.F.);
#418=CARTESIAN_POINT('',(-1.5E0,-1.05E0,-1.25E0));
#419=DIRECTION('',(0.E0,-1.E0,0.E0));
#420=DIRECTION('',(1.E0,0.E0,0.E0));
#421=AXIS2_PLACEMENT_3D('',#418,#419,#420);
#422=PLANE('',#421);
#423=ORIENTED_EDGE('',*,*,#365,.T.);
#425=ORIENTED_EDGE('',*,*,#424,.T.);
#427=ORIENTED_EDGE('',*,*,#426,.F.);
#428=ORIENTED_EDGE('',*,*,#323,.T.);
#430=ORIENTED_EDGE('',*,*,#429,.T.);
#432=ORIENTED_EDGE('',*,*,#431,.F.);
#434=ORIENTED_EDGE('',*,*,#433,.F.);
#435=ORIENTED_EDGE('',*,*,#409,.F.);
#436=ORIENTED_EDGE('',*,*,#345,.T.);
#438=ORIENTED_EDGE('',*,*,#437,.F.);
#439=ORIENTED_EDGE('',*,*,#300,.F.);
#440=ORIENTED_EDGE('',*,*,#316,.T.);
#441=EDGE_LOOP('',(#423,#425,#427,#428,#430,#432,#434,#435,#436,#438,#439,
#440));
#442=FACE_OUTER_BOUND('',#441,.F.);
#444=CARTESIAN_POINT('',(-1.1E0,-1.15E0,-9.5E-1));
#445=DIRECTION('',(1.E0,0.E0,0.E0));
#446=DIRECTION('',(0.E0,1.E0,0.E0));
#447=AXIS2_PLACEMENT_3D('',#444,#445,#446);
#448=PLANE('',#447);
#449=ORIENTED_EDGE('',*,*,#424,.F.);
#450=ORIENTED_EDGE('',*,*,#363,.F.);
#452=ORIENTED_EDGE('',*,*,#451,.T.);
#454=ORIENTED_EDGE('',*,*,#453,.T.);
#455=EDGE_LOOP('',(#449,#450,#452,#454));
#456=FACE_OUTER_BOUND('',#455,.F.);
#458=CARTESIAN_POINT('',(-1.6E0,-1.15E0,-9.5E-1));
#459=DIRECTION('',(0.E0,-1.E0,0.E0));
#460=DIRECTION('',(1.E0,0.E0,0.E0));
#461=AXIS2_PLACEMENT_3D('',#458,#459,#460);
#462=PLANE('',#461);
#464=ORIENTED_EDGE('',*,*,#463,.F.);
#466=ORIENTED_EDGE('',*,*,#465,.T.);
#467=ORIENTED_EDGE('',*,*,#451,.F.);
#468=ORIENTED_EDGE('',*,*,#361,.F.);
#469=EDGE_LOOP('',(#464,#466,#467,#468));
#470=FACE_OUTER_BOUND('',#469,.F.);
#472=CARTESIAN_POINT('',(-1.5E0,-1.05E0,4.509E0));
#473=DIRECTION('',(0.E0,0.E0,-1.E0));
#474=DIRECTION('',(0.E0,-1.E0,0.E0));
#475=AXIS2_PLACEMENT_3D('',#472,#473,#474);
#476=CYLINDRICAL_SURFACE('',#475,1.E-1);
#477=ORIENTED_EDGE('',*,*,#359,.T.);
#479=ORIENTED_EDGE('',*,*,#478,.F.);
#481=ORIENTED_EDGE('',*,*,#480,.T.);
#482=ORIENTED_EDGE('',*,*,#463,.T.);
#483=EDGE_LOOP('',(#477,#479,#481,#482));
#484=FACE_OUTER_BOUND('',#483,.F.);
#486=CARTESIAN_POINT('',(-1.6E0,-5.5E-1,-9.5E-1));
#487=DIRECTION('',(-1.E0,0.E0,0.E0));
#488=DIRECTION('',(0.E0,-1.E0,0.E0));
#489=AXIS2_PLACEMENT_3D('',#486,#487,#488);
#490=PLANE('',#489);
#491=ORIENTED_EDGE('',*,*,#478,.T.);
#492=ORIENTED_EDGE('',*,*,#370,.F.);
#494=ORIENTED_EDGE('',*,*,#493,.T.);
#496=ORIENTED_EDGE('',*,*,#495,.T.);
#497=EDGE_LOOP('',(#491,#492,#494,#496));
#498=FACE_OUTER_BOUND('',#497,.F.);
#500=CARTESIAN_POINT('',(-1.1E0,-5.5E-1,-9.5E-1));
#501=DIRECTION('',(0.E0,1.E0,0.E0));
#502=DIRECTION('',(-1.E0,0.E0,0.E0));
#503=AXIS2_PLACEMENT_3D('',#500,#501,#502);
#504=PLANE('',#503);
#505=ORIENTED_EDGE('',*,*,#327,.T.);
#507=ORIENTED_EDGE('',*,*,#506,.T.);
#508=ORIENTED_EDGE('',*,*,#493,.F.);
#509=ORIENTED_EDGE('',*,*,#368,.F.);
#510=EDGE_LOOP('',(#505,#507,#508,#509));
#511=FACE_OUTER_BOUND('',#510,.F.);
#513=CARTESIAN_POINT('',(0.E0,0.E0,9.5E-1));
#514=DIRECTION('',(0.E0,0.E0,1.E0));
#515=DIRECTION('',(1.E0,0.E0,0.E0));
#516=AXIS2_PLACEMENT_3D('',#513,#514,#515);
#517=PLANE('',#516);
#518=ORIENTED_EDGE('',*,*,#383,.F.);
#519=ORIENTED_EDGE('',*,*,#399,.F.);
#520=ORIENTED_EDGE('',*,*,#411,.F.);
#521=ORIENTED_EDGE('',*,*,#433,.T.);
#523=ORIENTED_EDGE('',*,*,#522,.T.);
#525=ORIENTED_EDGE('',*,*,#524,.F.);
#527=ORIENTED_EDGE('',*,*,#526,.F.);
#528=EDGE_LOOP('',(#518,#519,#520,#521,#523,#525,#527));
#529=FACE_OUTER_BOUND('',#528,.F.);
#531=CARTESIAN_POINT('',(0.E0,0.E0,9.5E-1));
#532=DIRECTION('',(0.E0,0.E0,1.E0));
#533=DIRECTION('',(1.E0,0.E0,0.E0));
#534=AXIS2_PLACEMENT_3D('',#531,#532,#533);
#535=PLANE('',#534);
#536=ORIENTED_EDGE('',*,*,#480,.F.);
#537=ORIENTED_EDGE('',*,*,#495,.F.);
#538=ORIENTED_EDGE('',*,*,#506,.F.);
#539=ORIENTED_EDGE('',*,*,#325,.F.);
#540=ORIENTED_EDGE('',*,*,#426,.T.);
#541=ORIENTED_EDGE('',*,*,#453,.F.);
#542=ORIENTED_EDGE('',*,*,#465,.F.);
#543=EDGE_LOOP('',(#536,#537,#538,#539,#540,#541,#542));
#544=FACE_OUTER_BOUND('',#543,.F.);
#546=CARTESIAN_POINT('',(1.5E0,-1.05E0,-1.25E0));
#547=DIRECTION('',(1.E0,0.E0,0.E0));
#548=DIRECTION('',(0.E0,1.E0,0.E0));
#549=AXIS2_PLACEMENT_3D('',#546,#547,#548);
#550=PLANE('',#549);
#551=ORIENTED_EDGE('',*,*,#343,.T.);
#553=ORIENTED_EDGE('',*,*,#552,.T.);
#554=ORIENTED_EDGE('',*,*,#522,.F.);
#555=ORIENTED_EDGE('',*,*,#431,.T.);
#557=ORIENTED_EDGE('',*,*,#556,.T.);
#559=ORIENTED_EDGE('',*,*,#558,.F.);
#560=ORIENTED_EDGE('',*,*,#302,.F.);
#561=ORIENTED_EDGE('',*,*,#437,.T.);
#562=EDGE_LOOP('',(#551,#553,#554,#555,#557,#559,#560,#561));
#563=FACE_OUTER_BOUND('',#562,.F.);
#565=CARTESIAN_POINT('',(1.6E0,-5.5E-1,-9.5E-1));
#566=DIRECTION('',(0.E0,1.E0,0.E0));
#567=DIRECTION('',(-1.E0,0.E0,0.E0));
#568=AXIS2_PLACEMENT_3D('',#565,#566,#567);
#569=PLANE('',#568);
#570=ORIENTED_EDGE('',*,*,#552,.F.);
#571=ORIENTED_EDGE('',*,*,#341,.F.);
#573=ORIENTED_EDGE('',*,*,#572,.T.);
#574=ORIENTED_EDGE('',*,*,#524,.T.);
#575=EDGE_LOOP('',(#570,#571,#573,#574));
#576=FACE_OUTER_BOUND('',#575,.F.);
#578=CARTESIAN_POINT('',(1.6E0,-1.15E0,-9.5E-1));
#579=DIRECTION('',(1.E0,0.E0,0.E0));
#580=DIRECTION('',(0.E0,1.E0,0.E0));
#581=AXIS2_PLACEMENT_3D('',#578,#579,#580);
#582=PLANE('',#581);
#583=ORIENTED_EDGE('',*,*,#385,.F.);
#584=ORIENTED_EDGE('',*,*,#526,.T.);
#585=ORIENTED_EDGE('',*,*,#572,.F.);
#586=ORIENTED_EDGE('',*,*,#339,.F.);
#587=EDGE_LOOP('',(#583,#584,#585,#586));
#588=FACE_OUTER_BOUND('',#587,.F.);
#590=CARTESIAN_POINT('',(0.E0,0.E0,1.25E0));
#591=DIRECTION('',(0.E0,0.E0,1.E0));
#592=DIRECTION('',(1.E0,0.E0,0.E0));
#593=AXIS2_PLACEMENT_3D('',#590,#591,#592);
#594=PLANE('',#593);
#595=ORIENTED_EDGE('',*,*,#321,.F.);
#597=ORIENTED_EDGE('',*,*,#596,.F.);
#598=ORIENTED_EDGE('',*,*,#556,.F.);
#599=ORIENTED_EDGE('',*,*,#429,.F.);
#600=EDGE_LOOP('',(#595,#597,#598,#599));
#601=FACE_OUTER_BOUND('',#600,.F.);
#603=CARTESIAN_POINT('',(1.5E0,1.05E0,-1.25E0));
#604=DIRECTION('',(0.E0,1.E0,0.E0));
#605=DIRECTION('',(-1.E0,0.E0,0.E0));
#606=AXIS2_PLACEMENT_3D('',#603,#604,#605);
#607=PLANE('',#606);
#608=ORIENTED_EDGE('',*,*,#304,.F.);
#609=ORIENTED_EDGE('',*,*,#558,.T.);
#610=ORIENTED_EDGE('',*,*,#596,.T.);
#611=ORIENTED_EDGE('',*,*,#319,.F.);
#612=EDGE_LOOP('',(#608,#609,#610,#611));
#613=FACE_OUTER_BOUND('',#612,.F.);
#615=CLOSED_SHELL('',(#308,#331,#353,#374,#389,#403,#417,#443,#457,#471,#485,
#499,#512,#530,#545,#564,#577,#589,#602,#614));
#616=MANIFOLD_SOLID_BREP('',#615);
#618=DIMENSIONAL_EXPONENTS(0.E0,0.E0,0.E0,0.E0,0.E0,0.E0,0.E0);
#620=PLANE_ANGLE_MEASURE_WITH_UNIT(PLANE_ANGLE_MEASURE(1.745329251994E-2),#619);
#621=(CONVERSION_BASED_UNIT('DEGREE',#620)NAMED_UNIT(*)PLANE_ANGLE_UNIT());
#623=UNCERTAINTY_MEASURE_WITH_UNIT(LENGTH_MEASURE(1.924273565771E-4),#617,
'closure',
'Maximum model space distance between geometric entities at asserted connectivities');
#626=APPLICATION_CONTEXT(
'CONFIGURATION CONTROLLED 3D DESIGNS OF MECHANICAL PARTS AND ASSEMBLIES');
#627=APPLICATION_PROTOCOL_DEFINITION('international standard',
'config_control_design',1994,#626);
#628=DESIGN_CONTEXT('',#626,'design');
#629=MECHANICAL_CONTEXT('',#626,'mechanical');
#630=PRODUCT('CMH322522','CMH322522','NOT SPECIFIED',(#629));
#631=PRODUCT_DEFINITION_FORMATION_WITH_SPECIFIED_SOURCE('1','LAST_VERSION',#630,
.MADE.);
#635=PRODUCT_CATEGORY('part','');
#636=PRODUCT_RELATED_PRODUCT_CATEGORY('detail','',(#630));
#637=PRODUCT_CATEGORY_RELATIONSHIP('','',#635,#636);
#638=SECURITY_CLASSIFICATION_LEVEL('unclassified');
#639=SECURITY_CLASSIFICATION('','',#638);
#640=CC_DESIGN_SECURITY_CLASSIFICATION(#639,(#631));
#641=APPROVAL_STATUS('approved');
#642=APPROVAL(#641,'');
#643=CC_DESIGN_APPROVAL(#642,(#639,#631,#632));
#644=CALENDAR_DATE(112,1,8);
#645=COORDINATED_UNIVERSAL_TIME_OFFSET(7,0,.BEHIND.);
#646=LOCAL_TIME(11,21,2.7E1,#645);
#647=DATE_AND_TIME(#644,#646);
#648=APPROVAL_DATE_TIME(#647,#642);
#649=DATE_TIME_ROLE('creation_date');
#650=CC_DESIGN_DATE_AND_TIME_ASSIGNMENT(#647,#649,(#632));
#651=DATE_TIME_ROLE('classification_date');
#652=CC_DESIGN_DATE_AND_TIME_ASSIGNMENT(#647,#651,(#639));
#653=PERSON('UNSPECIFIED','UNSPECIFIED',$,$,$,$);
#654=ORGANIZATION('UNSPECIFIED','UNSPECIFIED','UNSPECIFIED');
#655=PERSON_AND_ORGANIZATION(#653,#654);
#656=APPROVAL_ROLE('approver');
#657=APPROVAL_PERSON_ORGANIZATION(#655,#642,#656);
#658=PERSON_AND_ORGANIZATION_ROLE('creator');
#659=CC_DESIGN_PERSON_AND_ORGANIZATION_ASSIGNMENT(#655,#658,(#631,#632));
#660=PERSON_AND_ORGANIZATION_ROLE('design_supplier');
#661=CC_DESIGN_PERSON_AND_ORGANIZATION_ASSIGNMENT(#655,#660,(#631));
#662=PERSON_AND_ORGANIZATION_ROLE('classification_officer');
#663=CC_DESIGN_PERSON_AND_ORGANIZATION_ASSIGNMENT(#655,#662,(#639));
#664=PERSON_AND_ORGANIZATION_ROLE('design_owner');
#665=CC_DESIGN_PERSON_AND_ORGANIZATION_ASSIGNMENT(#655,#664,(#630));
#37=CIRCLE('',#36,1.E-1);
#58=CIRCLE('',#57,1.E-1);
#135=CIRCLE('',#134,1.E-1);
#156=CIRCLE('',#155,1.E-1);
#298=EDGE_CURVE('',#223,#224,#4,.T.);
#300=EDGE_CURVE('',#224,#226,#8,.T.);
#302=EDGE_CURVE('',#226,#228,#12,.T.);
#304=EDGE_CURVE('',#228,#223,#16,.T.);
#308=ADVANCED_FACE('',(#307),#297,.F.);
#314=EDGE_CURVE('',#255,#256,#20,.T.);
#316=EDGE_CURVE('',#224,#255,#114,.T.);
#319=EDGE_CURVE('',#223,#231,#24,.T.);
#321=EDGE_CURVE('',#231,#232,#204,.T.);
#323=EDGE_CURVE('',#259,#232,#98,.T.);
#325=EDGE_CURVE('',#259,#260,#28,.T.);
#327=EDGE_CURVE('',#256,#260,#32,.T.);
#331=ADVANCED_FACE('',(#330),#313,.T.);
#337=EDGE_CURVE('',#279,#280,#37,.T.);
#339=EDGE_CURVE('',#279,#243,#41,.T.);
#341=EDGE_CURVE('',#243,#274,#45,.T.);
#343=EDGE_CURVE('',#266,#274,#176,.T.);
#345=EDGE_CURVE('',#265,#266,#110,.T.);
#347=EDGE_CURVE('',#265,#239,#49,.T.);
#349=EDGE_CURVE('',#239,#280,#53,.T.);
#353=ADVANCED_FACE('',(#352),#336,.F.);
#359=EDGE_CURVE('',#287,#288,#58,.T.);
#361=EDGE_CURVE('',#287,#251,#62,.T.);
#363=EDGE_CURVE('',#251,#262,#66,.T.);
#365=EDGE_CURVE('',#255,#262,#86,.T.);
#368=EDGE_CURVE('',#256,#247,#70,.T.);
#370=EDGE_CURVE('',#247,#288,#74,.T.);
#374=ADVANCED_FACE('',(#373),#358,.F.);
#381=EDGE_CURVE('',#282,#280,#78,.T.);
#383=EDGE_CURVE('',#282,#284,#135,.T.);
#385=EDGE_CURVE('',#284,#279,#200,.T.);
#389=ADVANCED_FACE('',(#388),#379,.T.);
#397=EDGE_CURVE('',#239,#240,#82,.T.);
#399=EDGE_CURVE('',#240,#282,#139,.T.);
#403=ADVANCED_FACE('',(#402),#394,.T.);
#409=EDGE_CURVE('',#265,#271,#106,.T.);
#411=EDGE_CURVE('',#271,#240,#143,.T.);
#417=ADVANCED_FACE('',(#416),#408,.T.);
#424=EDGE_CURVE('',#262,#268,#90,.T.);
#426=EDGE_CURVE('',#259,#268,#94,.T.);
#429=EDGE_CURVE('',#232,#234,#216,.T.);
#431=EDGE_CURVE('',#272,#234,#188,.T.);
#433=EDGE_CURVE('',#271,#272,#102,.T.);
#437=EDGE_CURVE('',#226,#266,#192,.T.);
#443=ADVANCED_FACE('',(#442),#422,.T.);
#451=EDGE_CURVE('',#251,#252,#118,.T.);
#453=EDGE_CURVE('',#252,#268,#168,.T.);
#457=ADVANCED_FACE('',(#456),#448,.T.);
#463=EDGE_CURVE('',#292,#287,#122,.T.);
#465=EDGE_CURVE('',#292,#252,#172,.T.);
#471=ADVANCED_FACE('',(#470),#462,.T.);
#478=EDGE_CURVE('',#290,#288,#126,.T.);
#480=EDGE_CURVE('',#290,#292,#156,.T.);
#485=ADVANCED_FACE('',(#484),#476,.T.);
#493=EDGE_CURVE('',#247,#248,#130,.T.);
#495=EDGE_CURVE('',#248,#290,#160,.T.);
#499=ADVANCED_FACE('',(#498),#490,.T.);
#506=EDGE_CURVE('',#260,#248,#164,.T.);
#512=ADVANCED_FACE('',(#511),#504,.T.);
#522=EDGE_CURVE('',#272,#276,#184,.T.);
#524=EDGE_CURVE('',#244,#276,#147,.T.);
#526=EDGE_CURVE('',#284,#244,#151,.T.);
#530=ADVANCED_FACE('',(#529),#517,.T.);
#545=ADVANCED_FACE('',(#544),#535,.T.);
#552=EDGE_CURVE('',#274,#276,#180,.T.);
#556=EDGE_CURVE('',#234,#236,#212,.T.);
#558=EDGE_CURVE('',#228,#236,#220,.T.);
#564=ADVANCED_FACE('',(#563),#550,.T.);
#572=EDGE_CURVE('',#243,#244,#196,.T.);
#577=ADVANCED_FACE('',(#576),#569,.T.);
#589=ADVANCED_FACE('',(#588),#582,.T.);
#596=EDGE_CURVE('',#236,#231,#208,.T.);
#602=ADVANCED_FACE('',(#601),#594,.T.);
#614=ADVANCED_FACE('',(#613),#607,.T.);
#617=(LENGTH_UNIT()NAMED_UNIT(*)SI_UNIT(.MILLI.,.METRE.));
#619=(NAMED_UNIT(*)PLANE_ANGLE_UNIT()SI_UNIT($,.RADIAN.));
#622=(NAMED_UNIT(*)SI_UNIT($,.STERADIAN.)SOLID_ANGLE_UNIT());
#624=(GEOMETRIC_REPRESENTATION_CONTEXT(3)GLOBAL_UNCERTAINTY_ASSIGNED_CONTEXT((
#623))GLOBAL_UNIT_ASSIGNED_CONTEXT((#617,#621,#622))REPRESENTATION_CONTEXT
('ID1','3'));
#625=ADVANCED_BREP_SHAPE_REPRESENTATION('',(#616),#624);
#632=PRODUCT_DEFINITION('design','',#631,#628);
#633=PRODUCT_DEFINITION_SHAPE('','SHAPE FOR CMH322522.',#632);
#634=SHAPE_DEFINITION_REPRESENTATION(#633,#625);
ENDSEC;
END-ISO-10303-21;
