ISO-10303-21;
HEADER;
FILE_DESCRIPTION((''),'2;1');
FILE_NAME('CDDFN2-T33LC','2012-07-19T',('ryans'),('Bourns, Inc.'),
'PRO/ENGINEER BY PARAMETRIC TECHNOLOGY CORPORATION, 2010100',
'PRO/ENGINEER BY PARAMETRIC TECHNOLOGY CORPORATION, 2010100','');
FILE_SCHEMA(('CONFIG_CONTROL_DESIGN'));
ENDSEC;
DATA;
#1=DIRECTION('',(0.E0,0.E0,1.E0));
#2=VECTOR('',#1,6.E-1);
#3=CARTESIAN_POINT('',(2.E-1,0.E0,-3.E-1));
#4=LINE('',#3,#2);
#5=DIRECTION('',(-1.E0,0.E0,0.E0));
#6=VECTOR('',#5,4.E-1);
#7=CARTESIAN_POINT('',(2.E-1,0.E0,-3.E-1));
#8=LINE('',#7,#6);
#9=DIRECTION('',(0.E0,0.E0,-1.E0));
#10=VECTOR('',#9,6.E-1);
#11=CARTESIAN_POINT('',(-2.E-1,0.E0,3.E-1));
#12=LINE('',#11,#10);
#13=DIRECTION('',(1.E0,0.E0,0.E0));
#14=VECTOR('',#13,4.E-1);
#15=CARTESIAN_POINT('',(-2.E-1,0.E0,3.E-1));
#16=LINE('',#15,#14);
#17=DIRECTION('',(7.071067811865E-1,0.E0,7.071067811865E-1));
#18=VECTOR('',#17,1.414213562373E-1);
#19=CARTESIAN_POINT('',(-4.5E-1,0.E0,1.5E-1));
#20=LINE('',#19,#18);
#21=DIRECTION('',(0.E0,0.E0,1.E0));
#22=VECTOR('',#21,4.5E-1);
#23=CARTESIAN_POINT('',(-4.5E-1,0.E0,-3.E-1));
#24=LINE('',#23,#22);
#25=DIRECTION('',(-1.E0,0.E0,0.E0));
#26=VECTOR('',#25,5.E-2);
#27=CARTESIAN_POINT('',(-4.5E-1,0.E0,-3.E-1));
#28=LINE('',#27,#26);
#29=DIRECTION('',(0.E0,0.E0,1.E0));
#30=VECTOR('',#29,6.E-1);
#31=CARTESIAN_POINT('',(-5.E-1,0.E0,-3.E-1));
#32=LINE('',#31,#30);
#33=DIRECTION('',(1.E0,0.E0,0.E0));
#34=VECTOR('',#33,1.5E-1);
#35=CARTESIAN_POINT('',(-5.E-1,0.E0,3.E-1));
#36=LINE('',#35,#34);
#37=DIRECTION('',(0.E0,0.E0,1.E0));
#38=VECTOR('',#37,5.E-2);
#39=CARTESIAN_POINT('',(-3.5E-1,0.E0,2.5E-1));
#40=LINE('',#39,#38);
#41=DIRECTION('',(-1.E0,0.E0,0.E0));
#42=VECTOR('',#41,5.E-2);
#43=CARTESIAN_POINT('',(5.E-1,0.E0,-3.E-1));
#44=LINE('',#43,#42);
#45=DIRECTION('',(0.E0,0.E0,-1.E0));
#46=VECTOR('',#45,6.E-1);
#47=CARTESIAN_POINT('',(4.5E-1,0.E0,3.E-1));
#48=LINE('',#47,#46);
#49=DIRECTION('',(1.E0,0.E0,0.E0));
#50=VECTOR('',#49,5.E-2);
#51=CARTESIAN_POINT('',(4.5E-1,0.E0,3.E-1));
#52=LINE('',#51,#50);
#53=DIRECTION('',(0.E0,0.E0,-1.E0));
#54=VECTOR('',#53,6.E-1);
#55=CARTESIAN_POINT('',(5.E-1,0.E0,3.E-1));
#56=LINE('',#55,#54);
#57=DIRECTION('',(0.E0,-1.E0,0.E0));
#58=VECTOR('',#57,2.E-2);
#59=CARTESIAN_POINT('',(2.E-1,0.E0,-3.E-1));
#60=LINE('',#59,#58);
#61=DIRECTION('',(0.E0,-1.E0,0.E0));
#62=VECTOR('',#61,2.E-2);
#63=CARTESIAN_POINT('',(-3.5E-1,0.E0,3.E-1));
#64=LINE('',#63,#62);
#65=DIRECTION('',(0.E0,1.E0,0.E0));
#66=VECTOR('',#65,5.3E-1);
#67=CARTESIAN_POINT('',(-5.E-1,0.E0,3.E-1));
#68=LINE('',#67,#66);
#69=DIRECTION('',(0.E0,-1.E0,0.E0));
#70=VECTOR('',#69,2.E-2);
#71=CARTESIAN_POINT('',(2.E-1,0.E0,3.E-1));
#72=LINE('',#71,#70);
#73=DIRECTION('',(0.E0,-1.E0,0.E0));
#74=VECTOR('',#73,2.E-2);
#75=CARTESIAN_POINT('',(-2.E-1,0.E0,3.E-1));
#76=LINE('',#75,#74);
#77=DIRECTION('',(0.E0,-1.E0,0.E0));
#78=VECTOR('',#77,2.E-2);
#79=CARTESIAN_POINT('',(-2.E-1,0.E0,-3.E-1));
#80=LINE('',#79,#78);
#81=DIRECTION('',(0.E0,-1.E0,0.E0));
#82=VECTOR('',#81,2.E-2);
#83=CARTESIAN_POINT('',(4.5E-1,0.E0,-3.E-1));
#84=LINE('',#83,#82);
#85=DIRECTION('',(0.E0,1.E0,0.E0));
#86=VECTOR('',#85,5.3E-1);
#87=CARTESIAN_POINT('',(5.E-1,0.E0,-3.E-1));
#88=LINE('',#87,#86);
#89=DIRECTION('',(0.E0,-1.E0,0.E0));
#90=VECTOR('',#89,2.E-2);
#91=CARTESIAN_POINT('',(-4.5E-1,0.E0,-3.E-1));
#92=LINE('',#91,#90);
#93=DIRECTION('',(0.E0,-1.E0,0.E0));
#94=VECTOR('',#93,2.E-2);
#95=CARTESIAN_POINT('',(-4.5E-1,0.E0,1.5E-1));
#96=LINE('',#95,#94);
#97=DIRECTION('',(0.E0,-1.E0,0.E0));
#98=VECTOR('',#97,2.E-2);
#99=CARTESIAN_POINT('',(-3.5E-1,0.E0,2.5E-1));
#100=LINE('',#99,#98);
#101=DIRECTION('',(0.E0,0.E0,1.E0));
#102=VECTOR('',#101,6.E-1);
#103=CARTESIAN_POINT('',(2.E-1,-2.E-2,-3.E-1));
#104=LINE('',#103,#102);
#105=DIRECTION('',(1.E0,0.E0,0.E0));
#106=VECTOR('',#105,2.5E-1);
#107=CARTESIAN_POINT('',(2.E-1,-2.E-2,3.E-1));
#108=LINE('',#107,#106);
#109=DIRECTION('',(0.E0,0.E0,-1.E0));
#110=VECTOR('',#109,6.E-1);
#111=CARTESIAN_POINT('',(4.5E-1,-2.E-2,3.E-1));
#112=LINE('',#111,#110);
#113=DIRECTION('',(-1.E0,0.E0,0.E0));
#114=VECTOR('',#113,2.5E-1);
#115=CARTESIAN_POINT('',(4.5E-1,-2.E-2,-3.E-1));
#116=LINE('',#115,#114);
#117=DIRECTION('',(-1.E0,0.E0,0.E0));
#118=VECTOR('',#117,2.5E-1);
#119=CARTESIAN_POINT('',(-2.E-1,-2.E-2,-3.E-1));
#120=LINE('',#119,#118);
#121=DIRECTION('',(0.E0,0.E0,1.E0));
#122=VECTOR('',#121,4.5E-1);
#123=CARTESIAN_POINT('',(-4.5E-1,-2.E-2,-3.E-1));
#124=LINE('',#123,#122);
#125=DIRECTION('',(7.071067811865E-1,0.E0,7.071067811865E-1));
#126=VECTOR('',#125,1.414213562373E-1);
#127=CARTESIAN_POINT('',(-4.5E-1,-2.E-2,1.5E-1));
#128=LINE('',#127,#126);
#129=DIRECTION('',(0.E0,0.E0,1.E0));
#130=VECTOR('',#129,5.E-2);
#131=CARTESIAN_POINT('',(-3.5E-1,-2.E-2,2.5E-1));
#132=LINE('',#131,#130);
#133=DIRECTION('',(1.E0,0.E0,0.E0));
#134=VECTOR('',#133,1.5E-1);
#135=CARTESIAN_POINT('',(-3.5E-1,-2.E-2,3.E-1));
#136=LINE('',#135,#134);
#137=DIRECTION('',(0.E0,0.E0,-1.E0));
#138=VECTOR('',#137,6.E-1);
#139=CARTESIAN_POINT('',(-2.E-1,-2.E-2,3.E-1));
#140=LINE('',#139,#138);
#141=DIRECTION('',(0.E0,-1.E0,0.E0));
#142=VECTOR('',#141,2.E-2);
#143=CARTESIAN_POINT('',(4.5E-1,0.E0,3.E-1));
#144=LINE('',#143,#142);
#145=DIRECTION('',(0.E0,1.E0,0.E0));
#146=VECTOR('',#145,5.3E-1);
#147=CARTESIAN_POINT('',(5.E-1,0.E0,3.E-1));
#148=LINE('',#147,#146);
#149=DIRECTION('',(0.E0,0.E0,1.E0));
#150=VECTOR('',#149,6.E-1);
#151=CARTESIAN_POINT('',(-5.E-1,5.3E-1,-3.E-1));
#152=LINE('',#151,#150);
#153=DIRECTION('',(-1.E0,0.E0,0.E0));
#154=VECTOR('',#153,1.E0);
#155=CARTESIAN_POINT('',(5.E-1,5.3E-1,-3.E-1));
#156=LINE('',#155,#154);
#157=DIRECTION('',(0.E0,0.E0,-1.E0));
#158=VECTOR('',#157,6.E-1);
#159=CARTESIAN_POINT('',(5.E-1,5.3E-1,3.E-1));
#160=LINE('',#159,#158);
#161=DIRECTION('',(1.E0,0.E0,0.E0));
#162=VECTOR('',#161,1.E0);
#163=CARTESIAN_POINT('',(-5.E-1,5.3E-1,3.E-1));
#164=LINE('',#163,#162);
#165=DIRECTION('',(0.E0,1.E0,0.E0));
#166=VECTOR('',#165,5.3E-1);
#167=CARTESIAN_POINT('',(-5.E-1,0.E0,-3.E-1));
#168=LINE('',#167,#166);
#169=CARTESIAN_POINT('',(-5.E-1,0.E0,-3.E-1));
#170=CARTESIAN_POINT('',(-5.E-1,0.E0,3.E-1));
#171=VERTEX_POINT('',#169);
#172=VERTEX_POINT('',#170);
#173=CARTESIAN_POINT('',(5.E-1,0.E0,3.E-1));
#174=CARTESIAN_POINT('',(5.E-1,0.E0,-3.E-1));
#175=VERTEX_POINT('',#173);
#176=VERTEX_POINT('',#174);
#177=CARTESIAN_POINT('',(-5.E-1,5.3E-1,-3.E-1));
#178=CARTESIAN_POINT('',(-5.E-1,5.3E-1,3.E-1));
#179=VERTEX_POINT('',#177);
#180=VERTEX_POINT('',#178);
#181=CARTESIAN_POINT('',(5.E-1,5.3E-1,3.E-1));
#182=VERTEX_POINT('',#181);
#183=CARTESIAN_POINT('',(5.E-1,5.3E-1,-3.E-1));
#184=VERTEX_POINT('',#183);
#185=CARTESIAN_POINT('',(2.E-1,-2.E-2,-3.E-1));
#186=CARTESIAN_POINT('',(2.E-1,-2.E-2,3.E-1));
#187=VERTEX_POINT('',#185);
#188=VERTEX_POINT('',#186);
#189=CARTESIAN_POINT('',(4.5E-1,-2.E-2,3.E-1));
#190=VERTEX_POINT('',#189);
#191=CARTESIAN_POINT('',(4.5E-1,-2.E-2,-3.E-1));
#192=VERTEX_POINT('',#191);
#193=CARTESIAN_POINT('',(-2.E-1,-2.E-2,-3.E-1));
#194=CARTESIAN_POINT('',(-4.5E-1,-2.E-2,-3.E-1));
#195=VERTEX_POINT('',#193);
#196=VERTEX_POINT('',#194);
#197=CARTESIAN_POINT('',(-4.5E-1,-2.E-2,1.5E-1));
#198=VERTEX_POINT('',#197);
#199=CARTESIAN_POINT('',(-3.5E-1,-2.E-2,2.5E-1));
#200=VERTEX_POINT('',#199);
#201=CARTESIAN_POINT('',(-3.5E-1,-2.E-2,3.E-1));
#202=VERTEX_POINT('',#201);
#203=CARTESIAN_POINT('',(-2.E-1,-2.E-2,3.E-1));
#204=VERTEX_POINT('',#203);
#205=CARTESIAN_POINT('',(2.E-1,0.E0,-3.E-1));
#206=CARTESIAN_POINT('',(2.E-1,0.E0,3.E-1));
#207=VERTEX_POINT('',#205);
#208=VERTEX_POINT('',#206);
#209=CARTESIAN_POINT('',(-4.5E-1,0.E0,1.5E-1));
#210=CARTESIAN_POINT('',(-3.5E-1,0.E0,2.5E-1));
#211=VERTEX_POINT('',#209);
#212=VERTEX_POINT('',#210);
#213=CARTESIAN_POINT('',(-3.5E-1,0.E0,3.E-1));
#214=VERTEX_POINT('',#213);
#215=CARTESIAN_POINT('',(-2.E-1,0.E0,3.E-1));
#216=CARTESIAN_POINT('',(-2.E-1,0.E0,-3.E-1));
#217=VERTEX_POINT('',#215);
#218=VERTEX_POINT('',#216);
#219=CARTESIAN_POINT('',(4.5E-1,0.E0,3.E-1));
#220=VERTEX_POINT('',#219);
#221=CARTESIAN_POINT('',(4.5E-1,0.E0,-3.E-1));
#222=VERTEX_POINT('',#221);
#223=CARTESIAN_POINT('',(-4.5E-1,0.E0,-3.E-1));
#224=VERTEX_POINT('',#223);
#225=CARTESIAN_POINT('',(0.E0,0.E0,0.E0));
#226=DIRECTION('',(0.E0,1.E0,0.E0));
#227=DIRECTION('',(1.E0,0.E0,0.E0));
#228=AXIS2_PLACEMENT_3D('',#225,#226,#227);
#229=PLANE('',#228);
#231=ORIENTED_EDGE('',*,*,#230,.F.);
#233=ORIENTED_EDGE('',*,*,#232,.T.);
#235=ORIENTED_EDGE('',*,*,#234,.F.);
#237=ORIENTED_EDGE('',*,*,#236,.T.);
#238=EDGE_LOOP('',(#231,#233,#235,#237));
#239=FACE_OUTER_BOUND('',#238,.F.);
#241=CARTESIAN_POINT('',(0.E0,0.E0,0.E0));
#242=DIRECTION('',(0.E0,1.E0,0.E0));
#243=DIRECTION('',(1.E0,0.E0,0.E0));
#244=AXIS2_PLACEMENT_3D('',#241,#242,#243);
#245=PLANE('',#244);
#247=ORIENTED_EDGE('',*,*,#246,.F.);
#249=ORIENTED_EDGE('',*,*,#248,.F.);
#251=ORIENTED_EDGE('',*,*,#250,.T.);
#253=ORIENTED_EDGE('',*,*,#252,.T.);
#255=ORIENTED_EDGE('',*,*,#254,.T.);
#257=ORIENTED_EDGE('',*,*,#256,.F.);
#258=EDGE_LOOP('',(#247,#249,#251,#253,#255,#257));
#259=FACE_OUTER_BOUND('',#258,.F.);
#261=CARTESIAN_POINT('',(0.E0,0.E0,0.E0));
#262=DIRECTION('',(0.E0,1.E0,0.E0));
#263=DIRECTION('',(1.E0,0.E0,0.E0));
#264=AXIS2_PLACEMENT_3D('',#261,#262,#263);
#265=PLANE('',#264);
#267=ORIENTED_EDGE('',*,*,#266,.T.);
#269=ORIENTED_EDGE('',*,*,#268,.F.);
#271=ORIENTED_EDGE('',*,*,#270,.T.);
#273=ORIENTED_EDGE('',*,*,#272,.T.);
#274=EDGE_LOOP('',(#267,#269,#271,#273));
#275=FACE_OUTER_BOUND('',#274,.F.);
#277=CARTESIAN_POINT('',(2.E-1,0.E0,-3.E-1));
#278=DIRECTION('',(-1.E0,0.E0,0.E0));
#279=DIRECTION('',(0.E0,0.E0,1.E0));
#280=AXIS2_PLACEMENT_3D('',#277,#278,#279);
#281=PLANE('',#280);
#282=ORIENTED_EDGE('',*,*,#230,.T.);
#284=ORIENTED_EDGE('',*,*,#283,.T.);
#286=ORIENTED_EDGE('',*,*,#285,.F.);
#288=ORIENTED_EDGE('',*,*,#287,.F.);
#289=EDGE_LOOP('',(#282,#284,#286,#288));
#290=FACE_OUTER_BOUND('',#289,.F.);
#292=CARTESIAN_POINT('',(-5.E-1,0.E0,3.E-1));
#293=DIRECTION('',(0.E0,0.E0,1.E0));
#294=DIRECTION('',(1.E0,0.E0,0.E0));
#295=AXIS2_PLACEMENT_3D('',#292,#293,#294);
#296=PLANE('',#295);
#297=ORIENTED_EDGE('',*,*,#236,.F.);
#299=ORIENTED_EDGE('',*,*,#298,.T.);
#301=ORIENTED_EDGE('',*,*,#300,.F.);
#303=ORIENTED_EDGE('',*,*,#302,.F.);
#304=ORIENTED_EDGE('',*,*,#254,.F.);
#306=ORIENTED_EDGE('',*,*,#305,.T.);
#308=ORIENTED_EDGE('',*,*,#307,.T.);
#310=ORIENTED_EDGE('',*,*,#309,.F.);
#311=ORIENTED_EDGE('',*,*,#270,.F.);
#313=ORIENTED_EDGE('',*,*,#312,.T.);
#315=ORIENTED_EDGE('',*,*,#314,.F.);
#316=ORIENTED_EDGE('',*,*,#283,.F.);
#317=EDGE_LOOP('',(#297,#299,#301,#303,#304,#306,#308,#310,#311,#313,#315,
#316));
#318=FACE_OUTER_BOUND('',#317,.F.);
#320=CARTESIAN_POINT('',(-2.E-1,0.E0,3.E-1));
#321=DIRECTION('',(1.E0,0.E0,0.E0));
#322=DIRECTION('',(0.E0,0.E0,-1.E0));
#323=AXIS2_PLACEMENT_3D('',#320,#321,#322);
#324=PLANE('',#323);
#325=ORIENTED_EDGE('',*,*,#234,.T.);
#327=ORIENTED_EDGE('',*,*,#326,.T.);
#329=ORIENTED_EDGE('',*,*,#328,.F.);
#330=ORIENTED_EDGE('',*,*,#298,.F.);
#331=EDGE_LOOP('',(#325,#327,#329,#330));
#332=FACE_OUTER_BOUND('',#331,.F.);
#334=CARTESIAN_POINT('',(5.E-1,0.E0,-3.E-1));
#335=DIRECTION('',(0.E0,0.E0,-1.E0));
#336=DIRECTION('',(-1.E0,0.E0,0.E0));
#337=AXIS2_PLACEMENT_3D('',#334,#335,#336);
#338=PLANE('',#337);
#339=ORIENTED_EDGE('',*,*,#250,.F.);
#341=ORIENTED_EDGE('',*,*,#340,.T.);
#343=ORIENTED_EDGE('',*,*,#342,.F.);
#344=ORIENTED_EDGE('',*,*,#326,.F.);
#345=ORIENTED_EDGE('',*,*,#232,.F.);
#346=ORIENTED_EDGE('',*,*,#287,.T.);
#348=ORIENTED_EDGE('',*,*,#347,.F.);
#350=ORIENTED_EDGE('',*,*,#349,.F.);
#351=ORIENTED_EDGE('',*,*,#266,.F.);
#353=ORIENTED_EDGE('',*,*,#352,.T.);
#355=ORIENTED_EDGE('',*,*,#354,.T.);
#357=ORIENTED_EDGE('',*,*,#356,.F.);
#358=EDGE_LOOP('',(#339,#341,#343,#344,#345,#346,#348,#350,#351,#353,#355,
#357));
#359=FACE_OUTER_BOUND('',#358,.F.);
#361=CARTESIAN_POINT('',(-4.5E-1,0.E0,-3.E-1));
#362=DIRECTION('',(-1.E0,0.E0,0.E0));
#363=DIRECTION('',(0.E0,0.E0,1.E0));
#364=AXIS2_PLACEMENT_3D('',#361,#362,#363);
#365=PLANE('',#364);
#366=ORIENTED_EDGE('',*,*,#340,.F.);
#367=ORIENTED_EDGE('',*,*,#248,.T.);
#369=ORIENTED_EDGE('',*,*,#368,.T.);
#371=ORIENTED_EDGE('',*,*,#370,.F.);
#372=EDGE_LOOP('',(#366,#367,#369,#371));
#373=FACE_OUTER_BOUND('',#372,.F.);
#375=CARTESIAN_POINT('',(-4.5E-1,0.E0,1.5E-1));
#376=DIRECTION('',(-7.071067811865E-1,0.E0,7.071067811865E-1));
#377=DIRECTION('',(7.071067811865E-1,0.E0,7.071067811865E-1));
#378=AXIS2_PLACEMENT_3D('',#375,#376,#377);
#379=PLANE('',#378);
#380=ORIENTED_EDGE('',*,*,#246,.T.);
#382=ORIENTED_EDGE('',*,*,#381,.T.);
#384=ORIENTED_EDGE('',*,*,#383,.F.);
#385=ORIENTED_EDGE('',*,*,#368,.F.);
#386=EDGE_LOOP('',(#380,#382,#384,#385));
#387=FACE_OUTER_BOUND('',#386,.F.);
#389=CARTESIAN_POINT('',(-3.5E-1,0.E0,2.5E-1));
#390=DIRECTION('',(-1.E0,0.E0,0.E0));
#391=DIRECTION('',(0.E0,0.E0,1.E0));
#392=AXIS2_PLACEMENT_3D('',#389,#390,#391);
#393=PLANE('',#392);
#394=ORIENTED_EDGE('',*,*,#256,.T.);
#395=ORIENTED_EDGE('',*,*,#302,.T.);
#397=ORIENTED_EDGE('',*,*,#396,.F.);
#398=ORIENTED_EDGE('',*,*,#381,.F.);
#399=EDGE_LOOP('',(#394,#395,#397,#398));
#400=FACE_OUTER_BOUND('',#399,.F.);
#402=CARTESIAN_POINT('',(0.E0,-2.E-2,0.E0));
#403=DIRECTION('',(0.E0,1.E0,0.E0));
#404=DIRECTION('',(1.E0,0.E0,0.E0));
#405=AXIS2_PLACEMENT_3D('',#402,#403,#404);
#406=PLANE('',#405);
#407=ORIENTED_EDGE('',*,*,#285,.T.);
#408=ORIENTED_EDGE('',*,*,#314,.T.);
#410=ORIENTED_EDGE('',*,*,#409,.T.);
#411=ORIENTED_EDGE('',*,*,#347,.T.);
#412=EDGE_LOOP('',(#407,#408,#410,#411));
#413=FACE_OUTER_BOUND('',#412,.F.);
#415=CARTESIAN_POINT('',(0.E0,-2.E-2,0.E0));
#416=DIRECTION('',(0.E0,1.E0,0.E0));
#417=DIRECTION('',(1.E0,0.E0,0.E0));
#418=AXIS2_PLACEMENT_3D('',#415,#416,#417);
#419=PLANE('',#418);
#420=ORIENTED_EDGE('',*,*,#342,.T.);
#421=ORIENTED_EDGE('',*,*,#370,.T.);
#422=ORIENTED_EDGE('',*,*,#383,.T.);
#423=ORIENTED_EDGE('',*,*,#396,.T.);
#424=ORIENTED_EDGE('',*,*,#300,.T.);
#425=ORIENTED_EDGE('',*,*,#328,.T.);
#426=EDGE_LOOP('',(#420,#421,#422,#423,#424,#425));
#427=FACE_OUTER_BOUND('',#426,.F.);
#429=CARTESIAN_POINT('',(4.5E-1,0.E0,3.E-1));
#430=DIRECTION('',(1.E0,0.E0,0.E0));
#431=DIRECTION('',(0.E0,0.E0,-1.E0));
#432=AXIS2_PLACEMENT_3D('',#429,#430,#431);
#433=PLANE('',#432);
#434=ORIENTED_EDGE('',*,*,#312,.F.);
#435=ORIENTED_EDGE('',*,*,#268,.T.);
#436=ORIENTED_EDGE('',*,*,#349,.T.);
#437=ORIENTED_EDGE('',*,*,#409,.F.);
#438=EDGE_LOOP('',(#434,#435,#436,#437));
#439=FACE_OUTER_BOUND('',#438,.F.);
#441=CARTESIAN_POINT('',(5.E-1,0.E0,3.E-1));
#442=DIRECTION('',(1.E0,0.E0,0.E0));
#443=DIRECTION('',(0.E0,0.E0,-1.E0));
#444=AXIS2_PLACEMENT_3D('',#441,#442,#443);
#445=PLANE('',#444);
#446=ORIENTED_EDGE('',*,*,#272,.F.);
#447=ORIENTED_EDGE('',*,*,#309,.T.);
#449=ORIENTED_EDGE('',*,*,#448,.T.);
#450=ORIENTED_EDGE('',*,*,#352,.F.);
#451=EDGE_LOOP('',(#446,#447,#449,#450));
#452=FACE_OUTER_BOUND('',#451,.F.);
#454=CARTESIAN_POINT('',(0.E0,5.3E-1,0.E0));
#455=DIRECTION('',(0.E0,1.E0,0.E0));
#456=DIRECTION('',(1.E0,0.E0,0.E0));
#457=AXIS2_PLACEMENT_3D('',#454,#455,#456);
#458=PLANE('',#457);
#460=ORIENTED_EDGE('',*,*,#459,.F.);
#461=ORIENTED_EDGE('',*,*,#354,.F.);
#462=ORIENTED_EDGE('',*,*,#448,.F.);
#463=ORIENTED_EDGE('',*,*,#307,.F.);
#464=EDGE_LOOP('',(#460,#461,#462,#463));
#465=FACE_OUTER_BOUND('',#464,.F.);
#467=CARTESIAN_POINT('',(-5.E-1,0.E0,-3.E-1));
#468=DIRECTION('',(-1.E0,0.E0,0.E0));
#469=DIRECTION('',(0.E0,0.E0,1.E0));
#470=AXIS2_PLACEMENT_3D('',#467,#468,#469);
#471=PLANE('',#470);
#472=ORIENTED_EDGE('',*,*,#252,.F.);
#473=ORIENTED_EDGE('',*,*,#356,.T.);
#474=ORIENTED_EDGE('',*,*,#459,.T.);
#475=ORIENTED_EDGE('',*,*,#305,.F.);
#476=EDGE_LOOP('',(#472,#473,#474,#475));
#477=FACE_OUTER_BOUND('',#476,.F.);
#479=CLOSED_SHELL('',(#240,#260,#276,#291,#319,#333,#360,#374,#388,#401,#414,
#428,#440,#453,#466,#478));
#480=MANIFOLD_SOLID_BREP('',#479);
#482=DIMENSIONAL_EXPONENTS(0.E0,0.E0,0.E0,0.E0,0.E0,0.E0,0.E0);
#484=PLANE_ANGLE_MEASURE_WITH_UNIT(PLANE_ANGLE_MEASURE(1.745329251994E-2),#483);
#485=(CONVERSION_BASED_UNIT('DEGREE',#484)NAMED_UNIT(*)PLANE_ANGLE_UNIT());
#487=UNCERTAINTY_MEASURE_WITH_UNIT(LENGTH_MEASURE(5.372200502646E-5),#481,
'closure',
'Maximum model space distance between geometric entities at asserted connectivities');
#490=APPLICATION_CONTEXT(
'CONFIGURATION CONTROLLED 3D DESIGNS OF MECHANICAL PARTS AND ASSEMBLIES');
#491=APPLICATION_PROTOCOL_DEFINITION('international standard',
'config_control_design',1994,#490);
#492=DESIGN_CONTEXT('',#490,'design');
#493=MECHANICAL_CONTEXT('',#490,'mechanical');
#494=PRODUCT('CDDFN2-T33LC','CDDFN2-T33LC','NOT SPECIFIED',(#493));
#495=PRODUCT_DEFINITION_FORMATION_WITH_SPECIFIED_SOURCE('3','LAST_VERSION',#494,
.MADE.);
#499=PRODUCT_CATEGORY('part','');
#500=PRODUCT_RELATED_PRODUCT_CATEGORY('detail','',(#494));
#501=PRODUCT_CATEGORY_RELATIONSHIP('','',#499,#500);
#502=SECURITY_CLASSIFICATION_LEVEL('unclassified');
#503=SECURITY_CLASSIFICATION('','',#502);
#504=CC_DESIGN_SECURITY_CLASSIFICATION(#503,(#495));
#505=APPROVAL_STATUS('approved');
#506=APPROVAL(#505,'');
#507=CC_DESIGN_APPROVAL(#506,(#503,#495,#496));
#508=CALENDAR_DATE(112,19,7);
#509=COORDINATED_UNIVERSAL_TIME_OFFSET(7,0,.BEHIND.);
#510=LOCAL_TIME(9,58,5.9E1,#509);
#511=DATE_AND_TIME(#508,#510);
#512=APPROVAL_DATE_TIME(#511,#506);
#513=DATE_TIME_ROLE('creation_date');
#514=CC_DESIGN_DATE_AND_TIME_ASSIGNMENT(#511,#513,(#496));
#515=DATE_TIME_ROLE('classification_date');
#516=CC_DESIGN_DATE_AND_TIME_ASSIGNMENT(#511,#515,(#503));
#517=PERSON('UNSPECIFIED','UNSPECIFIED',$,$,$,$);
#518=ORGANIZATION('UNSPECIFIED','UNSPECIFIED','UNSPECIFIED');
#519=PERSON_AND_ORGANIZATION(#517,#518);
#520=APPROVAL_ROLE('approver');
#521=APPROVAL_PERSON_ORGANIZATION(#519,#506,#520);
#522=PERSON_AND_ORGANIZATION_ROLE('creator');
#523=CC_DESIGN_PERSON_AND_ORGANIZATION_ASSIGNMENT(#519,#522,(#495,#496));
#524=PERSON_AND_ORGANIZATION_ROLE('design_supplier');
#525=CC_DESIGN_PERSON_AND_ORGANIZATION_ASSIGNMENT(#519,#524,(#495));
#526=PERSON_AND_ORGANIZATION_ROLE('classification_officer');
#527=CC_DESIGN_PERSON_AND_ORGANIZATION_ASSIGNMENT(#519,#526,(#503));
#528=PERSON_AND_ORGANIZATION_ROLE('design_owner');
#529=CC_DESIGN_PERSON_AND_ORGANIZATION_ASSIGNMENT(#519,#528,(#494));
#230=EDGE_CURVE('',#207,#208,#4,.T.);
#232=EDGE_CURVE('',#207,#218,#8,.T.);
#234=EDGE_CURVE('',#217,#218,#12,.T.);
#236=EDGE_CURVE('',#217,#208,#16,.T.);
#240=ADVANCED_FACE('',(#239),#229,.F.);
#246=EDGE_CURVE('',#211,#212,#20,.T.);
#248=EDGE_CURVE('',#224,#211,#24,.T.);
#250=EDGE_CURVE('',#224,#171,#28,.T.);
#252=EDGE_CURVE('',#171,#172,#32,.T.);
#254=EDGE_CURVE('',#172,#214,#36,.T.);
#256=EDGE_CURVE('',#212,#214,#40,.T.);
#260=ADVANCED_FACE('',(#259),#245,.F.);
#266=EDGE_CURVE('',#176,#222,#44,.T.);
#268=EDGE_CURVE('',#220,#222,#48,.T.);
#270=EDGE_CURVE('',#220,#175,#52,.T.);
#272=EDGE_CURVE('',#175,#176,#56,.T.);
#276=ADVANCED_FACE('',(#275),#265,.F.);
#283=EDGE_CURVE('',#208,#188,#72,.T.);
#285=EDGE_CURVE('',#187,#188,#104,.T.);
#287=EDGE_CURVE('',#207,#187,#60,.T.);
#291=ADVANCED_FACE('',(#290),#281,.T.);
#298=EDGE_CURVE('',#217,#204,#76,.T.);
#300=EDGE_CURVE('',#202,#204,#136,.T.);
#302=EDGE_CURVE('',#214,#202,#64,.T.);
#305=EDGE_CURVE('',#172,#180,#68,.T.);
#307=EDGE_CURVE('',#180,#182,#164,.T.);
#309=EDGE_CURVE('',#175,#182,#148,.T.);
#312=EDGE_CURVE('',#220,#190,#144,.T.);
#314=EDGE_CURVE('',#188,#190,#108,.T.);
#319=ADVANCED_FACE('',(#318),#296,.T.);
#326=EDGE_CURVE('',#218,#195,#80,.T.);
#328=EDGE_CURVE('',#204,#195,#140,.T.);
#333=ADVANCED_FACE('',(#332),#324,.T.);
#340=EDGE_CURVE('',#224,#196,#92,.T.);
#342=EDGE_CURVE('',#195,#196,#120,.T.);
#347=EDGE_CURVE('',#192,#187,#116,.T.);
#349=EDGE_CURVE('',#222,#192,#84,.T.);
#352=EDGE_CURVE('',#176,#184,#88,.T.);
#354=EDGE_CURVE('',#184,#179,#156,.T.);
#356=EDGE_CURVE('',#171,#179,#168,.T.);
#360=ADVANCED_FACE('',(#359),#338,.T.);
#368=EDGE_CURVE('',#211,#198,#96,.T.);
#370=EDGE_CURVE('',#196,#198,#124,.T.);
#374=ADVANCED_FACE('',(#373),#365,.T.);
#381=EDGE_CURVE('',#212,#200,#100,.T.);
#383=EDGE_CURVE('',#198,#200,#128,.T.);
#388=ADVANCED_FACE('',(#387),#379,.T.);
#396=EDGE_CURVE('',#200,#202,#132,.T.);
#401=ADVANCED_FACE('',(#400),#393,.T.);
#409=EDGE_CURVE('',#190,#192,#112,.T.);
#414=ADVANCED_FACE('',(#413),#406,.F.);
#428=ADVANCED_FACE('',(#427),#419,.F.);
#440=ADVANCED_FACE('',(#439),#433,.T.);
#448=EDGE_CURVE('',#182,#184,#160,.T.);
#453=ADVANCED_FACE('',(#452),#445,.T.);
#459=EDGE_CURVE('',#179,#180,#152,.T.);
#466=ADVANCED_FACE('',(#465),#458,.T.);
#478=ADVANCED_FACE('',(#477),#471,.T.);
#481=(LENGTH_UNIT()NAMED_UNIT(*)SI_UNIT(.MILLI.,.METRE.));
#483=(NAMED_UNIT(*)PLANE_ANGLE_UNIT()SI_UNIT($,.RADIAN.));
#486=(NAMED_UNIT(*)SI_UNIT($,.STERADIAN.)SOLID_ANGLE_UNIT());
#488=(GEOMETRIC_REPRESENTATION_CONTEXT(3)GLOBAL_UNCERTAINTY_ASSIGNED_CONTEXT((
#487))GLOBAL_UNIT_ASSIGNED_CONTEXT((#481,#485,#486))REPRESENTATION_CONTEXT
('ID1','3'));
#489=ADVANCED_BREP_SHAPE_REPRESENTATION('',(#480),#488);
#496=PRODUCT_DEFINITION('design','',#495,#492);
#497=PRODUCT_DEFINITION_SHAPE('','SHAPE FOR CDDFN2-T33LC.',#496);
#498=SHAPE_DEFINITION_REPRESENTATION(#497,#489);
ENDSEC;
END-ISO-10303-21;
