ISO-10303-21;
HEADER;
FILE_DESCRIPTION((''),'2;1');
FILE_NAME('CD1005-TXX','2012-07-19T',('ryans'),('Bourns, Inc.'),
'PRO/ENGINEER BY PARAMETRIC TECHNOLOGY CORPORATION, 2010100',
'PRO/ENGINEER BY PARAMETRIC TECHNOLOGY CORPORATION, 2010100','');
FILE_SCHEMA(('CONFIG_CONTROL_DESIGN'));
ENDSEC;
DATA;
#1=DIRECTION('',(0.E0,0.E0,1.E0));
#2=VECTOR('',#1,1.E0);
#3=CARTESIAN_POINT('',(7.5E-1,0.E0,-5.E-1));
#4=LINE('',#3,#2);
#5=DIRECTION('',(-1.E0,0.E0,0.E0));
#6=VECTOR('',#5,5.E-1);
#7=CARTESIAN_POINT('',(1.25E0,0.E0,-5.E-1));
#8=LINE('',#7,#6);
#9=DIRECTION('',(0.E0,0.E0,-1.E0));
#10=VECTOR('',#9,1.E-1);
#11=CARTESIAN_POINT('',(1.25E0,0.E0,-5.E-1));
#12=LINE('',#11,#10);
#13=DIRECTION('',(-1.E0,0.E0,0.E0));
#14=VECTOR('',#13,2.5E0);
#15=CARTESIAN_POINT('',(1.25E0,0.E0,-6.E-1));
#16=LINE('',#15,#14);
#17=DIRECTION('',(0.E0,0.E0,1.E0));
#18=VECTOR('',#17,1.E-1);
#19=CARTESIAN_POINT('',(-1.25E0,0.E0,-6.E-1));
#20=LINE('',#19,#18);
#21=DIRECTION('',(1.E0,0.E0,0.E0));
#22=VECTOR('',#21,5.E-1);
#23=CARTESIAN_POINT('',(-1.25E0,0.E0,-5.E-1));
#24=LINE('',#23,#22);
#25=DIRECTION('',(0.E0,0.E0,-1.E0));
#26=VECTOR('',#25,1.E0);
#27=CARTESIAN_POINT('',(-7.5E-1,0.E0,5.E-1));
#28=LINE('',#27,#26);
#29=DIRECTION('',(1.E0,0.E0,0.E0));
#30=VECTOR('',#29,5.E-1);
#31=CARTESIAN_POINT('',(-1.25E0,0.E0,5.E-1));
#32=LINE('',#31,#30);
#33=DIRECTION('',(0.E0,0.E0,1.E0));
#34=VECTOR('',#33,1.E-1);
#35=CARTESIAN_POINT('',(-1.25E0,0.E0,5.E-1));
#36=LINE('',#35,#34);
#37=DIRECTION('',(1.E0,0.E0,0.E0));
#38=VECTOR('',#37,2.5E0);
#39=CARTESIAN_POINT('',(-1.25E0,0.E0,6.E-1));
#40=LINE('',#39,#38);
#41=DIRECTION('',(0.E0,0.E0,-1.E0));
#42=VECTOR('',#41,1.E-1);
#43=CARTESIAN_POINT('',(1.25E0,0.E0,6.E-1));
#44=LINE('',#43,#42);
#45=DIRECTION('',(-1.E0,0.E0,0.E0));
#46=VECTOR('',#45,5.E-1);
#47=CARTESIAN_POINT('',(1.25E0,0.E0,5.E-1));
#48=LINE('',#47,#46);
#49=DIRECTION('',(0.E0,-1.E0,0.E0));
#50=VECTOR('',#49,5.E-2);
#51=CARTESIAN_POINT('',(7.5E-1,0.E0,-5.E-1));
#52=LINE('',#51,#50);
#53=DIRECTION('',(0.E0,-1.E0,0.E0));
#54=VECTOR('',#53,5.E-2);
#55=CARTESIAN_POINT('',(7.5E-1,0.E0,5.E-1));
#56=LINE('',#55,#54);
#57=DIRECTION('',(0.E0,-1.E0,0.E0));
#58=VECTOR('',#57,5.E-2);
#59=CARTESIAN_POINT('',(1.25E0,0.E0,5.E-1));
#60=LINE('',#59,#58);
#61=DIRECTION('',(0.E0,1.E0,0.E0));
#62=VECTOR('',#61,7.5E-1);
#63=CARTESIAN_POINT('',(1.25E0,0.E0,6.E-1));
#64=LINE('',#63,#62);
#65=DIRECTION('',(0.E0,-1.E0,0.E0));
#66=VECTOR('',#65,5.E-2);
#67=CARTESIAN_POINT('',(1.25E0,0.E0,-5.E-1));
#68=LINE('',#67,#66);
#69=DIRECTION('',(0.E0,0.E0,1.E0));
#70=VECTOR('',#69,1.E0);
#71=CARTESIAN_POINT('',(7.5E-1,-5.E-2,-5.E-1));
#72=LINE('',#71,#70);
#73=DIRECTION('',(1.E0,0.E0,0.E0));
#74=VECTOR('',#73,5.E-1);
#75=CARTESIAN_POINT('',(7.5E-1,-5.E-2,5.E-1));
#76=LINE('',#75,#74);
#77=DIRECTION('',(0.E0,0.E0,-1.E0));
#78=VECTOR('',#77,1.E0);
#79=CARTESIAN_POINT('',(1.25E0,-5.E-2,5.E-1));
#80=LINE('',#79,#78);
#81=DIRECTION('',(-1.E0,0.E0,0.E0));
#82=VECTOR('',#81,5.E-1);
#83=CARTESIAN_POINT('',(1.25E0,-5.E-2,-5.E-1));
#84=LINE('',#83,#82);
#85=DIRECTION('',(-1.E0,0.E0,0.E0));
#86=VECTOR('',#85,5.E-1);
#87=CARTESIAN_POINT('',(-7.5E-1,-5.E-2,-5.E-1));
#88=LINE('',#87,#86);
#89=DIRECTION('',(0.E0,0.E0,1.E0));
#90=VECTOR('',#89,1.E0);
#91=CARTESIAN_POINT('',(-1.25E0,-5.E-2,-5.E-1));
#92=LINE('',#91,#90);
#93=DIRECTION('',(1.E0,0.E0,0.E0));
#94=VECTOR('',#93,5.E-1);
#95=CARTESIAN_POINT('',(-1.25E0,-5.E-2,5.E-1));
#96=LINE('',#95,#94);
#97=DIRECTION('',(0.E0,0.E0,-1.E0));
#98=VECTOR('',#97,1.E0);
#99=CARTESIAN_POINT('',(-7.5E-1,-5.E-2,5.E-1));
#100=LINE('',#99,#98);
#101=DIRECTION('',(0.E0,-1.E0,0.E0));
#102=VECTOR('',#101,5.E-2);
#103=CARTESIAN_POINT('',(-7.5E-1,0.E0,-5.E-1));
#104=LINE('',#103,#102);
#105=DIRECTION('',(0.E0,-1.E0,0.E0));
#106=VECTOR('',#105,5.E-2);
#107=CARTESIAN_POINT('',(-1.25E0,0.E0,-5.E-1));
#108=LINE('',#107,#106);
#109=DIRECTION('',(0.E0,1.E0,0.E0));
#110=VECTOR('',#109,7.5E-1);
#111=CARTESIAN_POINT('',(-1.25E0,0.E0,-6.E-1));
#112=LINE('',#111,#110);
#113=DIRECTION('',(0.E0,-1.E0,0.E0));
#114=VECTOR('',#113,5.E-2);
#115=CARTESIAN_POINT('',(-1.25E0,0.E0,5.E-1));
#116=LINE('',#115,#114);
#117=DIRECTION('',(0.E0,-1.E0,0.E0));
#118=VECTOR('',#117,5.E-2);
#119=CARTESIAN_POINT('',(-7.5E-1,0.E0,5.E-1));
#120=LINE('',#119,#118);
#121=DIRECTION('',(0.E0,1.E0,0.E0));
#122=VECTOR('',#121,7.5E-1);
#123=CARTESIAN_POINT('',(1.25E0,0.E0,-6.E-1));
#124=LINE('',#123,#122);
#125=DIRECTION('',(0.E0,0.E0,1.E0));
#126=VECTOR('',#125,1.2E0);
#127=CARTESIAN_POINT('',(-1.25E0,7.5E-1,-6.E-1));
#128=LINE('',#127,#126);
#129=DIRECTION('',(-1.E0,0.E0,0.E0));
#130=VECTOR('',#129,2.5E0);
#131=CARTESIAN_POINT('',(1.25E0,7.5E-1,-6.E-1));
#132=LINE('',#131,#130);
#133=DIRECTION('',(0.E0,0.E0,-1.E0));
#134=VECTOR('',#133,1.2E0);
#135=CARTESIAN_POINT('',(1.25E0,7.5E-1,6.E-1));
#136=LINE('',#135,#134);
#137=DIRECTION('',(1.E0,0.E0,0.E0));
#138=VECTOR('',#137,2.5E0);
#139=CARTESIAN_POINT('',(-1.25E0,7.5E-1,6.E-1));
#140=LINE('',#139,#138);
#141=DIRECTION('',(0.E0,1.E0,0.E0));
#142=VECTOR('',#141,7.5E-1);
#143=CARTESIAN_POINT('',(-1.25E0,0.E0,6.E-1));
#144=LINE('',#143,#142);
#145=CARTESIAN_POINT('',(-1.25E0,0.E0,6.E-1));
#146=CARTESIAN_POINT('',(1.25E0,0.E0,6.E-1));
#147=VERTEX_POINT('',#145);
#148=VERTEX_POINT('',#146);
#149=CARTESIAN_POINT('',(1.25E0,0.E0,-6.E-1));
#150=CARTESIAN_POINT('',(-1.25E0,0.E0,-6.E-1));
#151=VERTEX_POINT('',#149);
#152=VERTEX_POINT('',#150);
#153=CARTESIAN_POINT('',(-1.25E0,7.5E-1,-6.E-1));
#154=CARTESIAN_POINT('',(-1.25E0,7.5E-1,6.E-1));
#155=VERTEX_POINT('',#153);
#156=VERTEX_POINT('',#154);
#157=CARTESIAN_POINT('',(1.25E0,7.5E-1,6.E-1));
#158=VERTEX_POINT('',#157);
#159=CARTESIAN_POINT('',(1.25E0,7.5E-1,-6.E-1));
#160=VERTEX_POINT('',#159);
#161=CARTESIAN_POINT('',(7.5E-1,-5.E-2,-5.E-1));
#162=CARTESIAN_POINT('',(7.5E-1,-5.E-2,5.E-1));
#163=VERTEX_POINT('',#161);
#164=VERTEX_POINT('',#162);
#165=CARTESIAN_POINT('',(1.25E0,-5.E-2,5.E-1));
#166=VERTEX_POINT('',#165);
#167=CARTESIAN_POINT('',(1.25E0,-5.E-2,-5.E-1));
#168=VERTEX_POINT('',#167);
#169=CARTESIAN_POINT('',(-7.5E-1,-5.E-2,-5.E-1));
#170=CARTESIAN_POINT('',(-1.25E0,-5.E-2,-5.E-1));
#171=VERTEX_POINT('',#169);
#172=VERTEX_POINT('',#170);
#173=CARTESIAN_POINT('',(-1.25E0,-5.E-2,5.E-1));
#174=VERTEX_POINT('',#173);
#175=CARTESIAN_POINT('',(-7.5E-1,-5.E-2,5.E-1));
#176=VERTEX_POINT('',#175);
#177=CARTESIAN_POINT('',(7.5E-1,0.E0,-5.E-1));
#178=CARTESIAN_POINT('',(7.5E-1,0.E0,5.E-1));
#179=VERTEX_POINT('',#177);
#180=VERTEX_POINT('',#178);
#181=CARTESIAN_POINT('',(1.25E0,0.E0,5.E-1));
#182=VERTEX_POINT('',#181);
#183=CARTESIAN_POINT('',(1.25E0,0.E0,-5.E-1));
#184=VERTEX_POINT('',#183);
#185=CARTESIAN_POINT('',(-1.25E0,0.E0,-5.E-1));
#186=CARTESIAN_POINT('',(-7.5E-1,0.E0,-5.E-1));
#187=VERTEX_POINT('',#185);
#188=VERTEX_POINT('',#186);
#189=CARTESIAN_POINT('',(-1.25E0,0.E0,5.E-1));
#190=CARTESIAN_POINT('',(-7.5E-1,0.E0,5.E-1));
#191=VERTEX_POINT('',#189);
#192=VERTEX_POINT('',#190);
#193=CARTESIAN_POINT('',(0.E0,0.E0,0.E0));
#194=DIRECTION('',(0.E0,1.E0,0.E0));
#195=DIRECTION('',(1.E0,0.E0,0.E0));
#196=AXIS2_PLACEMENT_3D('',#193,#194,#195);
#197=PLANE('',#196);
#199=ORIENTED_EDGE('',*,*,#198,.F.);
#201=ORIENTED_EDGE('',*,*,#200,.F.);
#203=ORIENTED_EDGE('',*,*,#202,.T.);
#205=ORIENTED_EDGE('',*,*,#204,.T.);
#207=ORIENTED_EDGE('',*,*,#206,.T.);
#209=ORIENTED_EDGE('',*,*,#208,.T.);
#211=ORIENTED_EDGE('',*,*,#210,.F.);
#213=ORIENTED_EDGE('',*,*,#212,.F.);
#215=ORIENTED_EDGE('',*,*,#214,.T.);
#217=ORIENTED_EDGE('',*,*,#216,.T.);
#219=ORIENTED_EDGE('',*,*,#218,.T.);
#221=ORIENTED_EDGE('',*,*,#220,.T.);
#222=EDGE_LOOP('',(#199,#201,#203,#205,#207,#209,#211,#213,#215,#217,#219,
#221));
#223=FACE_OUTER_BOUND('',#222,.F.);
#225=CARTESIAN_POINT('',(7.5E-1,0.E0,-5.E-1));
#226=DIRECTION('',(-1.E0,0.E0,0.E0));
#227=DIRECTION('',(0.E0,0.E0,1.E0));
#228=AXIS2_PLACEMENT_3D('',#225,#226,#227);
#229=PLANE('',#228);
#230=ORIENTED_EDGE('',*,*,#198,.T.);
#232=ORIENTED_EDGE('',*,*,#231,.T.);
#234=ORIENTED_EDGE('',*,*,#233,.F.);
#236=ORIENTED_EDGE('',*,*,#235,.F.);
#237=EDGE_LOOP('',(#230,#232,#234,#236));
#238=FACE_OUTER_BOUND('',#237,.F.);
#240=CARTESIAN_POINT('',(7.5E-1,0.E0,5.E-1));
#241=DIRECTION('',(0.E0,0.E0,1.E0));
#242=DIRECTION('',(1.E0,0.E0,0.E0));
#243=AXIS2_PLACEMENT_3D('',#240,#241,#242);
#244=PLANE('',#243);
#245=ORIENTED_EDGE('',*,*,#220,.F.);
#247=ORIENTED_EDGE('',*,*,#246,.T.);
#249=ORIENTED_EDGE('',*,*,#248,.F.);
#250=ORIENTED_EDGE('',*,*,#231,.F.);
#251=EDGE_LOOP('',(#245,#247,#249,#250));
#252=FACE_OUTER_BOUND('',#251,.F.);
#254=CARTESIAN_POINT('',(1.25E0,0.E0,6.E-1));
#255=DIRECTION('',(1.E0,0.E0,0.E0));
#256=DIRECTION('',(0.E0,0.E0,-1.E0));
#257=AXIS2_PLACEMENT_3D('',#254,#255,#256);
#258=PLANE('',#257);
#259=ORIENTED_EDGE('',*,*,#202,.F.);
#261=ORIENTED_EDGE('',*,*,#260,.T.);
#263=ORIENTED_EDGE('',*,*,#262,.F.);
#264=ORIENTED_EDGE('',*,*,#246,.F.);
#265=ORIENTED_EDGE('',*,*,#218,.F.);
#267=ORIENTED_EDGE('',*,*,#266,.T.);
#269=ORIENTED_EDGE('',*,*,#268,.T.);
#271=ORIENTED_EDGE('',*,*,#270,.F.);
#272=EDGE_LOOP('',(#259,#261,#263,#264,#265,#267,#269,#271));
#273=FACE_OUTER_BOUND('',#272,.F.);
#275=CARTESIAN_POINT('',(1.25E0,0.E0,-5.E-1));
#276=DIRECTION('',(0.E0,0.E0,-1.E0));
#277=DIRECTION('',(-1.E0,0.E0,0.E0));
#278=AXIS2_PLACEMENT_3D('',#275,#276,#277);
#279=PLANE('',#278);
#280=ORIENTED_EDGE('',*,*,#200,.T.);
#281=ORIENTED_EDGE('',*,*,#235,.T.);
#283=ORIENTED_EDGE('',*,*,#282,.F.);
#284=ORIENTED_EDGE('',*,*,#260,.F.);
#285=EDGE_LOOP('',(#280,#281,#283,#284));
#286=FACE_OUTER_BOUND('',#285,.F.);
#288=CARTESIAN_POINT('',(0.E0,-5.E-2,0.E0));
#289=DIRECTION('',(0.E0,1.E0,0.E0));
#290=DIRECTION('',(1.E0,0.E0,0.E0));
#291=AXIS2_PLACEMENT_3D('',#288,#289,#290);
#292=PLANE('',#291);
#293=ORIENTED_EDGE('',*,*,#233,.T.);
#294=ORIENTED_EDGE('',*,*,#248,.T.);
#295=ORIENTED_EDGE('',*,*,#262,.T.);
#296=ORIENTED_EDGE('',*,*,#282,.T.);
#297=EDGE_LOOP('',(#293,#294,#295,#296));
#298=FACE_OUTER_BOUND('',#297,.F.);
#300=CARTESIAN_POINT('',(0.E0,-5.E-2,0.E0));
#301=DIRECTION('',(0.E0,1.E0,0.E0));
#302=DIRECTION('',(1.E0,0.E0,0.E0));
#303=AXIS2_PLACEMENT_3D('',#300,#301,#302);
#304=PLANE('',#303);
#306=ORIENTED_EDGE('',*,*,#305,.T.);
#308=ORIENTED_EDGE('',*,*,#307,.T.);
#310=ORIENTED_EDGE('',*,*,#309,.T.);
#312=ORIENTED_EDGE('',*,*,#311,.T.);
#313=EDGE_LOOP('',(#306,#308,#310,#312));
#314=FACE_OUTER_BOUND('',#313,.F.);
#316=CARTESIAN_POINT('',(-7.5E-1,0.E0,-5.E-1));
#317=DIRECTION('',(0.E0,0.E0,-1.E0));
#318=DIRECTION('',(-1.E0,0.E0,0.E0));
#319=AXIS2_PLACEMENT_3D('',#316,#317,#318);
#320=PLANE('',#319);
#321=ORIENTED_EDGE('',*,*,#208,.F.);
#323=ORIENTED_EDGE('',*,*,#322,.T.);
#324=ORIENTED_EDGE('',*,*,#305,.F.);
#326=ORIENTED_EDGE('',*,*,#325,.F.);
#327=EDGE_LOOP('',(#321,#323,#324,#326));
#328=FACE_OUTER_BOUND('',#327,.F.);
#330=CARTESIAN_POINT('',(-1.25E0,0.E0,-6.E-1));
#331=DIRECTION('',(-1.E0,0.E0,0.E0));
#332=DIRECTION('',(0.E0,0.E0,1.E0));
#333=AXIS2_PLACEMENT_3D('',#330,#331,#332);
#334=PLANE('',#333);
#335=ORIENTED_EDGE('',*,*,#214,.F.);
#337=ORIENTED_EDGE('',*,*,#336,.T.);
#338=ORIENTED_EDGE('',*,*,#307,.F.);
#339=ORIENTED_EDGE('',*,*,#322,.F.);
#340=ORIENTED_EDGE('',*,*,#206,.F.);
#342=ORIENTED_EDGE('',*,*,#341,.T.);
#344=ORIENTED_EDGE('',*,*,#343,.T.);
#346=ORIENTED_EDGE('',*,*,#345,.F.);
#347=EDGE_LOOP('',(#335,#337,#338,#339,#340,#342,#344,#346));
#348=FACE_OUTER_BOUND('',#347,.F.);
#350=CARTESIAN_POINT('',(-1.25E0,0.E0,5.E-1));
#351=DIRECTION('',(0.E0,0.E0,1.E0));
#352=DIRECTION('',(1.E0,0.E0,0.E0));
#353=AXIS2_PLACEMENT_3D('',#350,#351,#352);
#354=PLANE('',#353);
#355=ORIENTED_EDGE('',*,*,#212,.T.);
#357=ORIENTED_EDGE('',*,*,#356,.T.);
#358=ORIENTED_EDGE('',*,*,#309,.F.);
#359=ORIENTED_EDGE('',*,*,#336,.F.);
#360=EDGE_LOOP('',(#355,#357,#358,#359));
#361=FACE_OUTER_BOUND('',#360,.F.);
#363=CARTESIAN_POINT('',(-7.5E-1,0.E0,5.E-1));
#364=DIRECTION('',(1.E0,0.E0,0.E0));
#365=DIRECTION('',(0.E0,0.E0,-1.E0));
#366=AXIS2_PLACEMENT_3D('',#363,#364,#365);
#367=PLANE('',#366);
#368=ORIENTED_EDGE('',*,*,#210,.T.);
#369=ORIENTED_EDGE('',*,*,#325,.T.);
#370=ORIENTED_EDGE('',*,*,#311,.F.);
#371=ORIENTED_EDGE('',*,*,#356,.F.);
#372=EDGE_LOOP('',(#368,#369,#370,#371));
#373=FACE_OUTER_BOUND('',#372,.F.);
#375=CARTESIAN_POINT('',(1.25E0,0.E0,-6.E-1));
#376=DIRECTION('',(0.E0,0.E0,-1.E0));
#377=DIRECTION('',(-1.E0,0.E0,0.E0));
#378=AXIS2_PLACEMENT_3D('',#375,#376,#377);
#379=PLANE('',#378);
#380=ORIENTED_EDGE('',*,*,#204,.F.);
#381=ORIENTED_EDGE('',*,*,#270,.T.);
#383=ORIENTED_EDGE('',*,*,#382,.T.);
#384=ORIENTED_EDGE('',*,*,#341,.F.);
#385=EDGE_LOOP('',(#380,#381,#383,#384));
#386=FACE_OUTER_BOUND('',#385,.F.);
#388=CARTESIAN_POINT('',(0.E0,7.5E-1,0.E0));
#389=DIRECTION('',(0.E0,1.E0,0.E0));
#390=DIRECTION('',(1.E0,0.E0,0.E0));
#391=AXIS2_PLACEMENT_3D('',#388,#389,#390);
#392=PLANE('',#391);
#393=ORIENTED_EDGE('',*,*,#343,.F.);
#394=ORIENTED_EDGE('',*,*,#382,.F.);
#395=ORIENTED_EDGE('',*,*,#268,.F.);
#397=ORIENTED_EDGE('',*,*,#396,.F.);
#398=EDGE_LOOP('',(#393,#394,#395,#397));
#399=FACE_OUTER_BOUND('',#398,.F.);
#401=CARTESIAN_POINT('',(-1.25E0,0.E0,6.E-1));
#402=DIRECTION('',(0.E0,0.E0,1.E0));
#403=DIRECTION('',(1.E0,0.E0,0.E0));
#404=AXIS2_PLACEMENT_3D('',#401,#402,#403);
#405=PLANE('',#404);
#406=ORIENTED_EDGE('',*,*,#216,.F.);
#407=ORIENTED_EDGE('',*,*,#345,.T.);
#408=ORIENTED_EDGE('',*,*,#396,.T.);
#409=ORIENTED_EDGE('',*,*,#266,.F.);
#410=EDGE_LOOP('',(#406,#407,#408,#409));
#411=FACE_OUTER_BOUND('',#410,.F.);
#413=CLOSED_SHELL('',(#224,#239,#253,#274,#287,#299,#315,#329,#349,#362,#374,
#387,#400,#412));
#414=MANIFOLD_SOLID_BREP('',#413);
#416=DIMENSIONAL_EXPONENTS(0.E0,0.E0,0.E0,0.E0,0.E0,0.E0,0.E0);
#418=PLANE_ANGLE_MEASURE_WITH_UNIT(PLANE_ANGLE_MEASURE(1.745329251994E-2),#417);
#419=(CONVERSION_BASED_UNIT('DEGREE',#418)NAMED_UNIT(*)PLANE_ANGLE_UNIT());
#421=UNCERTAINTY_MEASURE_WITH_UNIT(LENGTH_MEASURE(1.202524371240E-4),#415,
'closure',
'Maximum model space distance between geometric entities at asserted connectivities');
#424=APPLICATION_CONTEXT(
'CONFIGURATION CONTROLLED 3D DESIGNS OF MECHANICAL PARTS AND ASSEMBLIES');
#425=APPLICATION_PROTOCOL_DEFINITION('international standard',
'config_control_design',1994,#424);
#426=DESIGN_CONTEXT('',#424,'design');
#427=MECHANICAL_CONTEXT('',#424,'mechanical');
#428=PRODUCT('CD1005-TXX','CD1005-TXX','NOT SPECIFIED',(#427));
#429=PRODUCT_DEFINITION_FORMATION_WITH_SPECIFIED_SOURCE('1','LAST_VERSION',#428,
.MADE.);
#433=PRODUCT_CATEGORY('part','');
#434=PRODUCT_RELATED_PRODUCT_CATEGORY('detail','',(#428));
#435=PRODUCT_CATEGORY_RELATIONSHIP('','',#433,#434);
#436=SECURITY_CLASSIFICATION_LEVEL('unclassified');
#437=SECURITY_CLASSIFICATION('','',#436);
#438=CC_DESIGN_SECURITY_CLASSIFICATION(#437,(#429));
#439=APPROVAL_STATUS('approved');
#440=APPROVAL(#439,'');
#441=CC_DESIGN_APPROVAL(#440,(#437,#429,#430));
#442=CALENDAR_DATE(112,19,7);
#443=COORDINATED_UNIVERSAL_TIME_OFFSET(7,0,.BEHIND.);
#444=LOCAL_TIME(8,28,3.5E1,#443);
#445=DATE_AND_TIME(#442,#444);
#446=APPROVAL_DATE_TIME(#445,#440);
#447=DATE_TIME_ROLE('creation_date');
#448=CC_DESIGN_DATE_AND_TIME_ASSIGNMENT(#445,#447,(#430));
#449=DATE_TIME_ROLE('classification_date');
#450=CC_DESIGN_DATE_AND_TIME_ASSIGNMENT(#445,#449,(#437));
#451=PERSON('UNSPECIFIED','UNSPECIFIED',$,$,$,$);
#452=ORGANIZATION('UNSPECIFIED','UNSPECIFIED','UNSPECIFIED');
#453=PERSON_AND_ORGANIZATION(#451,#452);
#454=APPROVAL_ROLE('approver');
#455=APPROVAL_PERSON_ORGANIZATION(#453,#440,#454);
#456=PERSON_AND_ORGANIZATION_ROLE('creator');
#457=CC_DESIGN_PERSON_AND_ORGANIZATION_ASSIGNMENT(#453,#456,(#429,#430));
#458=PERSON_AND_ORGANIZATION_ROLE('design_supplier');
#459=CC_DESIGN_PERSON_AND_ORGANIZATION_ASSIGNMENT(#453,#458,(#429));
#460=PERSON_AND_ORGANIZATION_ROLE('classification_officer');
#461=CC_DESIGN_PERSON_AND_ORGANIZATION_ASSIGNMENT(#453,#460,(#437));
#462=PERSON_AND_ORGANIZATION_ROLE('design_owner');
#463=CC_DESIGN_PERSON_AND_ORGANIZATION_ASSIGNMENT(#453,#462,(#428));
#198=EDGE_CURVE('',#179,#180,#4,.T.);
#200=EDGE_CURVE('',#184,#179,#8,.T.);
#202=EDGE_CURVE('',#184,#151,#12,.T.);
#204=EDGE_CURVE('',#151,#152,#16,.T.);
#206=EDGE_CURVE('',#152,#187,#20,.T.);
#208=EDGE_CURVE('',#187,#188,#24,.T.);
#210=EDGE_CURVE('',#192,#188,#28,.T.);
#212=EDGE_CURVE('',#191,#192,#32,.T.);
#214=EDGE_CURVE('',#191,#147,#36,.T.);
#216=EDGE_CURVE('',#147,#148,#40,.T.);
#218=EDGE_CURVE('',#148,#182,#44,.T.);
#220=EDGE_CURVE('',#182,#180,#48,.T.);
#224=ADVANCED_FACE('',(#223),#197,.F.);
#231=EDGE_CURVE('',#180,#164,#56,.T.);
#233=EDGE_CURVE('',#163,#164,#72,.T.);
#235=EDGE_CURVE('',#179,#163,#52,.T.);
#239=ADVANCED_FACE('',(#238),#229,.T.);
#246=EDGE_CURVE('',#182,#166,#60,.T.);
#248=EDGE_CURVE('',#164,#166,#76,.T.);
#253=ADVANCED_FACE('',(#252),#244,.T.);
#260=EDGE_CURVE('',#184,#168,#68,.T.);
#262=EDGE_CURVE('',#166,#168,#80,.T.);
#266=EDGE_CURVE('',#148,#158,#64,.T.);
#268=EDGE_CURVE('',#158,#160,#136,.T.);
#270=EDGE_CURVE('',#151,#160,#124,.T.);
#274=ADVANCED_FACE('',(#273),#258,.T.);
#282=EDGE_CURVE('',#168,#163,#84,.T.);
#287=ADVANCED_FACE('',(#286),#279,.T.);
#299=ADVANCED_FACE('',(#298),#292,.F.);
#305=EDGE_CURVE('',#171,#172,#88,.T.);
#307=EDGE_CURVE('',#172,#174,#92,.T.);
#309=EDGE_CURVE('',#174,#176,#96,.T.);
#311=EDGE_CURVE('',#176,#171,#100,.T.);
#315=ADVANCED_FACE('',(#314),#304,.F.);
#322=EDGE_CURVE('',#187,#172,#108,.T.);
#325=EDGE_CURVE('',#188,#171,#104,.T.);
#329=ADVANCED_FACE('',(#328),#320,.T.);
#336=EDGE_CURVE('',#191,#174,#116,.T.);
#341=EDGE_CURVE('',#152,#155,#112,.T.);
#343=EDGE_CURVE('',#155,#156,#128,.T.);
#345=EDGE_CURVE('',#147,#156,#144,.T.);
#349=ADVANCED_FACE('',(#348),#334,.T.);
#356=EDGE_CURVE('',#192,#176,#120,.T.);
#362=ADVANCED_FACE('',(#361),#354,.T.);
#374=ADVANCED_FACE('',(#373),#367,.T.);
#382=EDGE_CURVE('',#160,#155,#132,.T.);
#387=ADVANCED_FACE('',(#386),#379,.T.);
#396=EDGE_CURVE('',#156,#158,#140,.T.);
#400=ADVANCED_FACE('',(#399),#392,.T.);
#412=ADVANCED_FACE('',(#411),#405,.T.);
#415=(LENGTH_UNIT()NAMED_UNIT(*)SI_UNIT(.MILLI.,.METRE.));
#417=(NAMED_UNIT(*)PLANE_ANGLE_UNIT()SI_UNIT($,.RADIAN.));
#420=(NAMED_UNIT(*)SI_UNIT($,.STERADIAN.)SOLID_ANGLE_UNIT());
#422=(GEOMETRIC_REPRESENTATION_CONTEXT(3)GLOBAL_UNCERTAINTY_ASSIGNED_CONTEXT((
#421))GLOBAL_UNIT_ASSIGNED_CONTEXT((#415,#419,#420))REPRESENTATION_CONTEXT
('ID1','3'));
#423=ADVANCED_BREP_SHAPE_REPRESENTATION('',(#414),#422);
#430=PRODUCT_DEFINITION('design','',#429,#426);
#431=PRODUCT_DEFINITION_SHAPE('','SHAPE FOR CD1005-TXX.',#430);
#432=SHAPE_DEFINITION_REPRESENTATION(#431,#423);
ENDSEC;
END-ISO-10303-21;
