ISO-10303-21;
HEADER;
FILE_DESCRIPTION((''),'2;1');
FILE_NAME('77F','2012-08-07T',('ryans'),('Bourns, Inc.'),
'PRO/ENGINEER BY PARAMETRIC TECHNOLOGY CORPORATION, 2010100',
'PRO/ENGINEER BY PARAMETRIC TECHNOLOGY CORPORATION, 2010100','');
FILE_SCHEMA(('CONFIG_CONTROL_DESIGN'));
ENDSEC;
DATA;
#1=CARTESIAN_POINT('',(0.E0,0.E0,-5.205E0));
#2=DIRECTION('',(0.E0,0.E0,1.E0));
#3=DIRECTION('',(1.E0,0.E0,0.E0));
#4=AXIS2_PLACEMENT_3D('',#1,#2,#3);
#6=CARTESIAN_POINT('',(0.E0,0.E0,-5.205E0));
#7=DIRECTION('',(0.E0,0.E0,1.E0));
#8=DIRECTION('',(-1.E0,0.E0,0.E0));
#9=AXIS2_PLACEMENT_3D('',#6,#7,#8);
#11=CARTESIAN_POINT('',(0.E0,0.E0,-5.205E0));
#12=DIRECTION('',(0.E0,0.E0,-1.E0));
#13=DIRECTION('',(1.E0,0.E0,0.E0));
#14=AXIS2_PLACEMENT_3D('',#11,#12,#13);
#16=CARTESIAN_POINT('',(0.E0,0.E0,-5.205E0));
#17=DIRECTION('',(0.E0,0.E0,-1.E0));
#18=DIRECTION('',(-1.E0,0.E0,0.E0));
#19=AXIS2_PLACEMENT_3D('',#16,#17,#18);
#21=DIRECTION('',(0.E0,0.E0,1.E0));
#22=VECTOR('',#21,2.54E1);
#23=CARTESIAN_POINT('',(3.2E-1,0.E0,-3.0605E1));
#24=LINE('',#23,#22);
#25=DIRECTION('',(0.E0,0.E0,1.E0));
#26=VECTOR('',#25,2.54E1);
#27=CARTESIAN_POINT('',(3.2E-1,0.E0,5.205E0));
#28=LINE('',#27,#26);
#29=DIRECTION('',(0.E0,0.E0,1.E0));
#30=VECTOR('',#29,2.54E1);
#31=CARTESIAN_POINT('',(-3.2E-1,0.E0,-3.0605E1));
#32=LINE('',#31,#30);
#33=DIRECTION('',(0.E0,0.E0,1.E0));
#34=VECTOR('',#33,2.54E1);
#35=CARTESIAN_POINT('',(-3.2E-1,0.E0,5.205E0));
#36=LINE('',#35,#34);
#37=CARTESIAN_POINT('',(0.E0,0.E0,-3.0605E1));
#38=DIRECTION('',(0.E0,0.E0,1.E0));
#39=DIRECTION('',(1.E0,0.E0,0.E0));
#40=AXIS2_PLACEMENT_3D('',#37,#38,#39);
#42=CARTESIAN_POINT('',(0.E0,0.E0,-3.0605E1));
#43=DIRECTION('',(0.E0,0.E0,1.E0));
#44=DIRECTION('',(-1.E0,0.E0,0.E0));
#45=AXIS2_PLACEMENT_3D('',#42,#43,#44);
#47=CARTESIAN_POINT('',(0.E0,0.E0,5.205E0));
#48=DIRECTION('',(0.E0,0.E0,1.E0));
#49=DIRECTION('',(1.E0,0.E0,0.E0));
#50=AXIS2_PLACEMENT_3D('',#47,#48,#49);
#52=CARTESIAN_POINT('',(0.E0,0.E0,5.205E0));
#53=DIRECTION('',(0.E0,0.E0,1.E0));
#54=DIRECTION('',(-1.E0,0.E0,0.E0));
#55=AXIS2_PLACEMENT_3D('',#52,#53,#54);
#57=CARTESIAN_POINT('',(0.E0,0.E0,5.205E0));
#58=DIRECTION('',(0.E0,0.E0,1.E0));
#59=DIRECTION('',(-1.E0,0.E0,0.E0));
#60=AXIS2_PLACEMENT_3D('',#57,#58,#59);
#62=CARTESIAN_POINT('',(0.E0,0.E0,5.205E0));
#63=DIRECTION('',(0.E0,0.E0,1.E0));
#64=DIRECTION('',(1.E0,0.E0,0.E0));
#65=AXIS2_PLACEMENT_3D('',#62,#63,#64);
#67=CARTESIAN_POINT('',(-7.95E-1,0.E0,4.005E0));
#68=DIRECTION('',(0.E0,-1.E0,0.E0));
#69=DIRECTION('',(0.E0,0.E0,1.E0));
#70=AXIS2_PLACEMENT_3D('',#67,#68,#69);
#72=CARTESIAN_POINT('',(7.95E-1,0.E0,4.005E0));
#73=DIRECTION('',(0.E0,1.E0,0.E0));
#74=DIRECTION('',(0.E0,0.E0,1.E0));
#75=AXIS2_PLACEMENT_3D('',#72,#73,#74);
#77=CARTESIAN_POINT('',(0.E0,0.E0,4.005E0));
#78=DIRECTION('',(0.E0,0.E0,1.E0));
#79=DIRECTION('',(1.E0,0.E0,0.E0));
#80=AXIS2_PLACEMENT_3D('',#77,#78,#79);
#82=CARTESIAN_POINT('',(0.E0,0.E0,-4.005E0));
#83=DIRECTION('',(0.E0,0.E0,-1.E0));
#84=DIRECTION('',(-1.E0,0.E0,0.E0));
#85=AXIS2_PLACEMENT_3D('',#82,#83,#84);
#87=DIRECTION('',(0.E0,-1.209650942147E-11,1.E0));
#88=VECTOR('',#87,8.01E0);
#89=CARTESIAN_POINT('',(1.995E0,7.785549699833E-11,-4.005E0));
#90=LINE('',#89,#88);
#91=CARTESIAN_POINT('',(0.E0,0.E0,4.005E0));
#92=DIRECTION('',(0.E0,0.E0,1.E0));
#93=DIRECTION('',(-1.E0,0.E0,0.E0));
#94=AXIS2_PLACEMENT_3D('',#91,#92,#93);
#96=CARTESIAN_POINT('',(0.E0,0.E0,-4.005E0));
#97=DIRECTION('',(0.E0,0.E0,-1.E0));
#98=DIRECTION('',(1.E0,0.E0,0.E0));
#99=AXIS2_PLACEMENT_3D('',#96,#97,#98);
#101=DIRECTION('',(0.E0,1.209646090986E-11,1.E0));
#102=VECTOR('',#101,8.01E0);
#103=CARTESIAN_POINT('',(-1.995E0,-7.785532735936E-11,-4.005E0));
#104=LINE('',#103,#102);
#105=CARTESIAN_POINT('',(7.95E-1,0.E0,-4.005E0));
#106=DIRECTION('',(0.E0,-1.E0,0.E0));
#107=DIRECTION('',(0.E0,0.E0,-1.E0));
#108=AXIS2_PLACEMENT_3D('',#105,#106,#107);
#110=CARTESIAN_POINT('',(-7.95E-1,0.E0,-4.005E0));
#111=DIRECTION('',(0.E0,1.E0,0.E0));
#112=DIRECTION('',(0.E0,0.E0,-1.E0));
#113=AXIS2_PLACEMENT_3D('',#110,#111,#112);
#115=CARTESIAN_POINT('',(0.E0,0.E0,3.0605E1));
#116=DIRECTION('',(0.E0,0.E0,1.E0));
#117=DIRECTION('',(1.E0,0.E0,0.E0));
#118=AXIS2_PLACEMENT_3D('',#115,#116,#117);
#120=CARTESIAN_POINT('',(0.E0,0.E0,3.0605E1));
#121=DIRECTION('',(0.E0,0.E0,1.E0));
#122=DIRECTION('',(-1.E0,0.E0,0.E0));
#123=AXIS2_PLACEMENT_3D('',#120,#121,#122);
#125=CARTESIAN_POINT('',(3.2E-1,0.E0,-3.0605E1));
#126=CARTESIAN_POINT('',(-3.2E-1,0.E0,-3.0605E1));
#127=VERTEX_POINT('',#125);
#128=VERTEX_POINT('',#126);
#129=CARTESIAN_POINT('',(3.2E-1,0.E0,3.0605E1));
#130=CARTESIAN_POINT('',(-3.2E-1,0.E0,3.0605E1));
#131=VERTEX_POINT('',#129);
#132=VERTEX_POINT('',#130);
#133=CARTESIAN_POINT('',(3.2E-1,0.E0,-5.205E0));
#134=CARTESIAN_POINT('',(-3.2E-1,0.E0,-5.205E0));
#135=VERTEX_POINT('',#133);
#136=VERTEX_POINT('',#134);
#137=CARTESIAN_POINT('',(3.2E-1,0.E0,5.205E0));
#138=CARTESIAN_POINT('',(-3.2E-1,0.E0,5.205E0));
#139=VERTEX_POINT('',#137);
#140=VERTEX_POINT('',#138);
#141=CARTESIAN_POINT('',(-7.95E-1,0.E0,5.205E0));
#142=CARTESIAN_POINT('',(7.95E-1,0.E0,5.205E0));
#143=VERTEX_POINT('',#141);
#144=VERTEX_POINT('',#142);
#145=CARTESIAN_POINT('',(-1.995E0,0.E0,4.005E0));
#146=CARTESIAN_POINT('',(1.995E0,0.E0,4.005E0));
#147=VERTEX_POINT('',#145);
#148=VERTEX_POINT('',#146);
#149=CARTESIAN_POINT('',(7.95E-1,0.E0,-5.205E0));
#150=CARTESIAN_POINT('',(-7.95E-1,0.E0,-5.205E0));
#151=VERTEX_POINT('',#149);
#152=VERTEX_POINT('',#150);
#153=CARTESIAN_POINT('',(1.995E0,0.E0,-4.005E0));
#154=CARTESIAN_POINT('',(-1.995E0,0.E0,-4.005E0));
#155=VERTEX_POINT('',#153);
#156=VERTEX_POINT('',#154);
#157=CARTESIAN_POINT('',(0.E0,0.E0,-5.205E0));
#158=DIRECTION('',(0.E0,0.E0,1.E0));
#159=DIRECTION('',(1.E0,0.E0,0.E0));
#160=AXIS2_PLACEMENT_3D('',#157,#158,#159);
#161=PLANE('',#160);
#163=ORIENTED_EDGE('',*,*,#162,.F.);
#165=ORIENTED_EDGE('',*,*,#164,.F.);
#166=EDGE_LOOP('',(#163,#165));
#167=FACE_OUTER_BOUND('',#166,.F.);
#169=ORIENTED_EDGE('',*,*,#168,.F.);
#171=ORIENTED_EDGE('',*,*,#170,.F.);
#172=EDGE_LOOP('',(#169,#171));
#173=FACE_BOUND('',#172,.F.);
#175=CARTESIAN_POINT('',(0.E0,0.E0,-3.0605E1));
#176=DIRECTION('',(0.E0,0.E0,1.E0));
#177=DIRECTION('',(1.E0,0.E0,0.E0));
#178=AXIS2_PLACEMENT_3D('',#175,#176,#177);
#179=CYLINDRICAL_SURFACE('',#178,3.2E-1);
#180=ORIENTED_EDGE('',*,*,#168,.T.);
#182=ORIENTED_EDGE('',*,*,#181,.F.);
#184=ORIENTED_EDGE('',*,*,#183,.F.);
#186=ORIENTED_EDGE('',*,*,#185,.T.);
#187=EDGE_LOOP('',(#180,#182,#184,#186));
#188=FACE_OUTER_BOUND('',#187,.F.);
#190=CARTESIAN_POINT('',(0.E0,0.E0,-3.0605E1));
#191=DIRECTION('',(0.E0,0.E0,1.E0));
#192=DIRECTION('',(1.E0,0.E0,0.E0));
#193=AXIS2_PLACEMENT_3D('',#190,#191,#192);
#194=CYLINDRICAL_SURFACE('',#193,3.2E-1);
#196=ORIENTED_EDGE('',*,*,#195,.F.);
#198=ORIENTED_EDGE('',*,*,#197,.T.);
#200=ORIENTED_EDGE('',*,*,#199,.T.);
#202=ORIENTED_EDGE('',*,*,#201,.F.);
#203=EDGE_LOOP('',(#196,#198,#200,#202));
#204=FACE_OUTER_BOUND('',#203,.F.);
#206=CARTESIAN_POINT('',(0.E0,0.E0,-3.0605E1));
#207=DIRECTION('',(0.E0,0.E0,1.E0));
#208=DIRECTION('',(1.E0,0.E0,0.E0));
#209=AXIS2_PLACEMENT_3D('',#206,#207,#208);
#210=CYLINDRICAL_SURFACE('',#209,3.2E-1);
#211=ORIENTED_EDGE('',*,*,#170,.T.);
#212=ORIENTED_EDGE('',*,*,#185,.F.);
#214=ORIENTED_EDGE('',*,*,#213,.F.);
#215=ORIENTED_EDGE('',*,*,#181,.T.);
#216=EDGE_LOOP('',(#211,#212,#214,#215));
#217=FACE_OUTER_BOUND('',#216,.F.);
#219=CARTESIAN_POINT('',(0.E0,0.E0,-3.0605E1));
#220=DIRECTION('',(0.E0,0.E0,1.E0));
#221=DIRECTION('',(1.E0,0.E0,0.E0));
#222=AXIS2_PLACEMENT_3D('',#219,#220,#221);
#223=CYLINDRICAL_SURFACE('',#222,3.2E-1);
#225=ORIENTED_EDGE('',*,*,#224,.F.);
#226=ORIENTED_EDGE('',*,*,#201,.T.);
#228=ORIENTED_EDGE('',*,*,#227,.T.);
#229=ORIENTED_EDGE('',*,*,#197,.F.);
#230=EDGE_LOOP('',(#225,#226,#228,#229));
#231=FACE_OUTER_BOUND('',#230,.F.);
#233=CARTESIAN_POINT('',(0.E0,0.E0,-3.0605E1));
#234=DIRECTION('',(0.E0,0.E0,1.E0));
#235=DIRECTION('',(1.E0,0.E0,0.E0));
#236=AXIS2_PLACEMENT_3D('',#233,#234,#235);
#237=PLANE('',#236);
#238=ORIENTED_EDGE('',*,*,#183,.T.);
#239=ORIENTED_EDGE('',*,*,#213,.T.);
#240=EDGE_LOOP('',(#238,#239));
#241=FACE_OUTER_BOUND('',#240,.F.);
#243=CARTESIAN_POINT('',(0.E0,0.E0,5.205E0));
#244=DIRECTION('',(0.E0,0.E0,1.E0));
#245=DIRECTION('',(1.E0,0.E0,0.E0));
#246=AXIS2_PLACEMENT_3D('',#243,#244,#245);
#247=PLANE('',#246);
#249=ORIENTED_EDGE('',*,*,#248,.F.);
#251=ORIENTED_EDGE('',*,*,#250,.F.);
#252=EDGE_LOOP('',(#249,#251));
#253=FACE_OUTER_BOUND('',#252,.F.);
#254=ORIENTED_EDGE('',*,*,#195,.T.);
#255=ORIENTED_EDGE('',*,*,#224,.T.);
#256=EDGE_LOOP('',(#254,#255));
#257=FACE_BOUND('',#256,.F.);
#259=CARTESIAN_POINT('',(-1.990472364065E0,1.252299067243E-1,3.967307089106E0));
#260=CARTESIAN_POINT('',(-2.013622756225E0,1.266864059468E-1,4.705421011393E0));
#261=CARTESIAN_POINT('',(-1.492470139611E0,9.389826241570E-2,5.227604036931E0));
#262=CARTESIAN_POINT('',(-7.558127165500E-1,4.755170566711E-2,
5.204407872439E0));
#263=CARTESIAN_POINT('',(-2.067538673155E0,-1.099703996502E0,3.967307089106E0));
#264=CARTESIAN_POINT('',(-2.091585392896E0,-1.112494216170E0,4.705421011393E0));
#265=CARTESIAN_POINT('',(-1.550254998704E0,-8.245657698244E-1,
5.227604036931E0));
#266=CARTESIAN_POINT('',(-7.850759695745E-1,-4.175743808366E-1,
5.204407872439E0));
#267=CARTESIAN_POINT('',(-1.227355804754E0,-1.994407875399E0,3.967307089106E0));
#268=CARTESIAN_POINT('',(-1.241630691817E0,-2.017604039925E0,4.705421011393E0));
#269=CARTESIAN_POINT('',(-9.202799909925E-1,-1.495421013612E0,
5.227604036931E0));
#270=CARTESIAN_POINT('',(-4.660457194541E-1,-7.573070902302E-1,
5.204407872439E0));
#271=CARTESIAN_POINT('',(4.809987804577E-9,-1.994407872439E0,3.967307089106E0));
#272=CARTESIAN_POINT('',(4.865930371358E-9,-2.017604036931E0,4.705421011393E0));
#273=CARTESIAN_POINT('',(3.606562613441E-9,-1.495421011393E0,5.227604036931E0));
#274=CARTESIAN_POINT('',(1.826425603435E-9,-7.573070891062E-1,
5.204407872439E0));
#275=CARTESIAN_POINT('',(1.227355814374E0,-1.994407869479E0,3.967307089106E0));
#276=CARTESIAN_POINT('',(1.241630701549E0,-2.017604033936E0,4.705421011393E0));
#277=CARTESIAN_POINT('',(9.202799982056E-1,-1.495421009173E0,5.227604036931E0));
#278=CARTESIAN_POINT('',(4.660457231069E-1,-7.573070879823E-1,
5.204407872439E0));
#279=CARTESIAN_POINT('',(2.067538678460E0,-1.099703986529E0,3.967307089106E0));
#280=CARTESIAN_POINT('',(2.091585398262E0,-1.112494206081E0,4.705421011393E0));
#281=CARTESIAN_POINT('',(1.550255002682E0,-8.245657623468E-1,5.227604036931E0));
#282=CARTESIAN_POINT('',(7.850759715887E-1,-4.175743770498E-1,
5.204407872439E0));
#283=CARTESIAN_POINT('',(1.990472363461E0,1.252299163252E-1,3.967307089106E0));
#284=CARTESIAN_POINT('',(2.013622755614E0,1.266864156595E-1,4.705421011393E0));
#285=CARTESIAN_POINT('',(1.492470139158E0,9.389826961459E-2,5.227604036931E0));
#286=CARTESIAN_POINT('',(7.558127163207E-1,4.755170931276E-2,5.204407872439E0));
#287=(BOUNDED_SURFACE()B_SPLINE_SURFACE(3,3,((#259,#260,#261,#262),(#263,#264,
#265,#266),(#267,#268,#269,#270),(#271,#272,#273,#274),(#275,#276,#277,#278),(
#279,#280,#281,#282),(#283,#284,#285,#286)),.UNSPECIFIED.,.F.,.F.,.F.)B_SPLINE_SURFACE_WITH_KNOTS((4,3,4),(4,4),(0.E0,1.E0,2.E0),(0.E0,1.E0),.UNSPECIFIED.)GEOMETRIC_REPRESENTATION_ITEM()RATIONAL_B_SPLINE_SURFACE(((1.409592796745E0,
1.113152711948E0,1.113152711948E0,1.409592796745E0),(1.113152711077E0,
8.790545482421E-1,8.790545482421E-1,1.113152711077E0),(1.113152711077E0,
8.790545482421E-1,8.790545482421E-1,1.113152711077E0),(1.409592796745E0,
1.113152711948E0,1.113152711948E0,1.409592796745E0),(1.113152711077E0,
8.790545482421E-1,8.790545482421E-1,1.113152711077E0),(1.113152711077E0,
8.790545482421E-1,8.790545482421E-1,1.113152711077E0),(1.409592796745E0,
1.113152711948E0,1.113152711948E0,1.409592796745E0)))REPRESENTATION_ITEM('')SURFACE());
#288=ORIENTED_EDGE('',*,*,#248,.T.);
#290=ORIENTED_EDGE('',*,*,#289,.T.);
#292=ORIENTED_EDGE('',*,*,#291,.F.);
#294=ORIENTED_EDGE('',*,*,#293,.F.);
#295=EDGE_LOOP('',(#288,#290,#292,#294));
#296=FACE_OUTER_BOUND('',#295,.F.);
#298=CARTESIAN_POINT('',(1.990472364065E0,-1.252299067243E-1,3.967307089106E0));
#299=CARTESIAN_POINT('',(2.013622756225E0,-1.266864059468E-1,4.705421011393E0));
#300=CARTESIAN_POINT('',(1.492470139611E0,-9.389826241570E-2,5.227604036931E0));
#301=CARTESIAN_POINT('',(7.558127165500E-1,-4.755170566711E-2,
5.204407872439E0));
#302=CARTESIAN_POINT('',(2.067538673155E0,1.099703996502E0,3.967307089106E0));
#303=CARTESIAN_POINT('',(2.091585392896E0,1.112494216170E0,4.705421011393E0));
#304=CARTESIAN_POINT('',(1.550254998704E0,8.245657698244E-1,5.227604036931E0));
#305=CARTESIAN_POINT('',(7.850759695745E-1,4.175743808366E-1,5.204407872439E0));
#306=CARTESIAN_POINT('',(1.227355804754E0,1.994407875399E0,3.967307089106E0));
#307=CARTESIAN_POINT('',(1.241630691817E0,2.017604039925E0,4.705421011393E0));
#308=CARTESIAN_POINT('',(9.202799909925E-1,1.495421013612E0,5.227604036931E0));
#309=CARTESIAN_POINT('',(4.660457194541E-1,7.573070902302E-1,5.204407872439E0));
#310=CARTESIAN_POINT('',(-4.809987658129E-9,1.994407872439E0,3.967307089106E0));
#311=CARTESIAN_POINT('',(-4.865930697061E-9,2.017604036931E0,4.705421011393E0));
#312=CARTESIAN_POINT('',(-3.606562502406E-9,1.495421011393E0,5.227604036931E0));
#313=CARTESIAN_POINT('',(-1.826425638201E-9,7.573070891062E-1,
5.204407872439E0));
#314=CARTESIAN_POINT('',(-1.227355814374E0,1.994407869479E0,3.967307089106E0));
#315=CARTESIAN_POINT('',(-1.241630701549E0,2.017604033936E0,4.705421011393E0));
#316=CARTESIAN_POINT('',(-9.202799982056E-1,1.495421009173E0,5.227604036931E0));
#317=CARTESIAN_POINT('',(-4.660457231069E-1,7.573070879823E-1,
5.204407872439E0));
#318=CARTESIAN_POINT('',(-2.067538678460E0,1.099703986529E0,3.967307089106E0));
#319=CARTESIAN_POINT('',(-2.091585398262E0,1.112494206081E0,4.705421011393E0));
#320=CARTESIAN_POINT('',(-1.550255002682E0,8.245657623468E-1,5.227604036931E0));
#321=CARTESIAN_POINT('',(-7.850759715887E-1,4.175743770498E-1,
5.204407872439E0));
#322=CARTESIAN_POINT('',(-1.990472363461E0,-1.252299163252E-1,
3.967307089106E0));
#323=CARTESIAN_POINT('',(-2.013622755614E0,-1.266864156595E-1,
4.705421011393E0));
#324=CARTESIAN_POINT('',(-1.492470139158E0,-9.389826961459E-2,
5.227604036931E0));
#325=CARTESIAN_POINT('',(-7.558127163207E-1,-4.755170931276E-2,
5.204407872439E0));
#326=(BOUNDED_SURFACE()B_SPLINE_SURFACE(3,3,((#298,#299,#300,#301),(#302,#303,
#304,#305),(#306,#307,#308,#309),(#310,#311,#312,#313),(#314,#315,#316,#317),(
#318,#319,#320,#321),(#322,#323,#324,#325)),.UNSPECIFIED.,.F.,.F.,.F.)B_SPLINE_SURFACE_WITH_KNOTS((4,3,4),(4,4),(0.E0,1.E0,2.E0),(0.E0,1.E0),.UNSPECIFIED.)GEOMETRIC_REPRESENTATION_ITEM()RATIONAL_B_SPLINE_SURFACE(((1.409592796745E0,
1.113152711948E0,1.113152711948E0,1.409592796745E0),(1.113152711077E0,
8.790545482421E-1,8.790545482421E-1,1.113152711077E0),(1.113152711077E0,
8.790545482421E-1,8.790545482421E-1,1.113152711077E0),(1.409592796745E0,
1.113152711948E0,1.113152711948E0,1.409592796745E0),(1.113152711077E0,
8.790545482421E-1,8.790545482421E-1,1.113152711077E0),(1.113152711077E0,
8.790545482421E-1,8.790545482421E-1,1.113152711077E0),(1.409592796745E0,
1.113152711948E0,1.113152711948E0,1.409592796745E0)))REPRESENTATION_ITEM('')SURFACE());
#327=ORIENTED_EDGE('',*,*,#250,.T.);
#328=ORIENTED_EDGE('',*,*,#293,.T.);
#330=ORIENTED_EDGE('',*,*,#329,.F.);
#331=ORIENTED_EDGE('',*,*,#289,.F.);
#332=EDGE_LOOP('',(#327,#328,#330,#331));
#333=FACE_OUTER_BOUND('',#332,.F.);
#335=CARTESIAN_POINT('',(0.E0,0.E0,-5.205E0));
#336=DIRECTION('',(0.E0,0.E0,1.E0));
#337=DIRECTION('',(1.E0,0.E0,0.E0));
#338=AXIS2_PLACEMENT_3D('',#335,#336,#337);
#339=CYLINDRICAL_SURFACE('',#338,1.995E0);
#340=ORIENTED_EDGE('',*,*,#329,.T.);
#342=ORIENTED_EDGE('',*,*,#341,.F.);
#344=ORIENTED_EDGE('',*,*,#343,.T.);
#346=ORIENTED_EDGE('',*,*,#345,.T.);
#347=EDGE_LOOP('',(#340,#342,#344,#346));
#348=FACE_OUTER_BOUND('',#347,.F.);
#350=CARTESIAN_POINT('',(0.E0,0.E0,-5.205E0));
#351=DIRECTION('',(0.E0,0.E0,1.E0));
#352=DIRECTION('',(1.E0,0.E0,0.E0));
#353=AXIS2_PLACEMENT_3D('',#350,#351,#352);
#354=CYLINDRICAL_SURFACE('',#353,1.995E0);
#355=ORIENTED_EDGE('',*,*,#291,.T.);
#356=ORIENTED_EDGE('',*,*,#345,.F.);
#358=ORIENTED_EDGE('',*,*,#357,.T.);
#359=ORIENTED_EDGE('',*,*,#341,.T.);
#360=EDGE_LOOP('',(#355,#356,#358,#359));
#361=FACE_OUTER_BOUND('',#360,.F.);
#363=CARTESIAN_POINT('',(-7.558127163209E-1,4.755170930956E-2,
-5.204407872439E0));
#364=CARTESIAN_POINT('',(-1.492470139158E0,9.389826960829E-2,
-5.227604036931E0));
#365=CARTESIAN_POINT('',(-2.013622755615E0,1.266864156510E-1,
-4.705421011393E0));
#366=CARTESIAN_POINT('',(-1.990472363462E0,1.252299163168E-1,
-3.967307089106E0));
#367=CARTESIAN_POINT('',(-7.850759715872E-1,-4.175743770584E-1,
-5.204407872439E0));
#368=CARTESIAN_POINT('',(-1.550255002679E0,-8.245657623638E-1,
-5.227604036931E0));
#369=CARTESIAN_POINT('',(-2.091585398258E0,-1.112494206104E0,
-4.705421011393E0));
#370=CARTESIAN_POINT('',(-2.067538678456E0,-1.099703986552E0,
-3.967307089106E0));
#371=CARTESIAN_POINT('',(-4.660457230980E-1,-7.573070879910E-1,
-5.204407872439E0));
#372=CARTESIAN_POINT('',(-9.202799981880E-1,-1.495421009191E0,
-5.227604036931E0));
#373=CARTESIAN_POINT('',(-1.241630701525E0,-2.017604033960E0,
-4.705421011393E0));
#374=CARTESIAN_POINT('',(-1.227355814350E0,-1.994407869502E0,
-3.967307089106E0));
#375=CARTESIAN_POINT('',(-1.812196363260E-9,-7.573070891062E-1,
-5.204407872439E0));
#376=CARTESIAN_POINT('',(-3.578464759997E-9,-1.495421011393E0,
-5.227604036931E0));
#377=CARTESIAN_POINT('',(-4.828021366053E-9,-2.017604036931E0,
-4.705421011393E0));
#378=CARTESIAN_POINT('',(-4.772514669964E-9,-1.994407872439E0,
-3.967307089106E0));
#379=CARTESIAN_POINT('',(4.660457194736E-1,-7.573070902215E-1,
-5.204407872439E0));
#380=CARTESIAN_POINT('',(9.202799910310E-1,-1.495421013595E0,
-5.227604036931E0));
#381=CARTESIAN_POINT('',(1.241630691869E0,-2.017604039902E0,-4.705421011393E0));
#382=CARTESIAN_POINT('',(1.227355804805E0,-1.994407875376E0,-3.967307089106E0));
#383=CARTESIAN_POINT('',(7.850759695888E-1,-4.175743808157E-1,
-5.204407872439E0));
#384=CARTESIAN_POINT('',(1.550254998733E0,-8.245657697831E-1,
-5.227604036931E0));
#385=CARTESIAN_POINT('',(2.091585392934E0,-1.112494216114E0,-4.705421011393E0));
#386=CARTESIAN_POINT('',(2.067538673193E0,-1.099703996447E0,-3.967307089106E0));
#387=CARTESIAN_POINT('',(7.558127165484E-1,4.755170569232E-2,
-5.204407872439E0));
#388=CARTESIAN_POINT('',(1.492470139608E0,9.389826246548E-2,-5.227604036931E0));
#389=CARTESIAN_POINT('',(2.013622756221E0,1.266864060140E-1,-4.705421011393E0));
#390=CARTESIAN_POINT('',(1.990472364061E0,1.252299067906E-1,-3.967307089106E0));
#391=(BOUNDED_SURFACE()B_SPLINE_SURFACE(3,3,((#363,#364,#365,#366),(#367,#368,
#369,#370),(#371,#372,#373,#374),(#375,#376,#377,#378),(#379,#380,#381,#382),(
#383,#384,#385,#386),(#387,#388,#389,#390)),.UNSPECIFIED.,.F.,.F.,.F.)B_SPLINE_SURFACE_WITH_KNOTS((4,3,4),(4,4),(0.E0,1.E0,2.E0),(0.E0,1.E0),.UNSPECIFIED.)GEOMETRIC_REPRESENTATION_ITEM()RATIONAL_B_SPLINE_SURFACE(((1.409592796749E0,
1.113152711952E0,1.113152711952E0,1.409592796749E0),(1.113152711076E0,
8.790545482410E-1,8.790545482410E-1,1.113152711076E0),(1.113152711076E0,
8.790545482410E-1,8.790545482410E-1,1.113152711076E0),(1.409592796749E0,
1.113152711952E0,1.113152711952E0,1.409592796749E0),(1.113152711076E0,
8.790545482410E-1,8.790545482410E-1,1.113152711076E0),(1.113152711076E0,
8.790545482410E-1,8.790545482410E-1,1.113152711076E0),(1.409592796749E0,
1.113152711952E0,1.113152711952E0,1.409592796749E0)))REPRESENTATION_ITEM('')SURFACE());
#392=ORIENTED_EDGE('',*,*,#162,.T.);
#394=ORIENTED_EDGE('',*,*,#393,.T.);
#395=ORIENTED_EDGE('',*,*,#357,.F.);
#397=ORIENTED_EDGE('',*,*,#396,.F.);
#398=EDGE_LOOP('',(#392,#394,#395,#397));
#399=FACE_OUTER_BOUND('',#398,.F.);
#401=CARTESIAN_POINT('',(7.558127163209E-1,-4.755170930956E-2,
-5.204407872439E0));
#402=CARTESIAN_POINT('',(1.492470139158E0,-9.389826960829E-2,
-5.227604036931E0));
#403=CARTESIAN_POINT('',(2.013622755615E0,-1.266864156510E-1,
-4.705421011393E0));
#404=CARTESIAN_POINT('',(1.990472363462E0,-1.252299163168E-1,
-3.967307089106E0));
#405=CARTESIAN_POINT('',(7.850759715872E-1,4.175743770584E-1,
-5.204407872439E0));
#406=CARTESIAN_POINT('',(1.550255002679E0,8.245657623638E-1,-5.227604036931E0));
#407=CARTESIAN_POINT('',(2.091585398258E0,1.112494206104E0,-4.705421011393E0));
#408=CARTESIAN_POINT('',(2.067538678456E0,1.099703986552E0,-3.967307089106E0));
#409=CARTESIAN_POINT('',(4.660457230980E-1,7.573070879910E-1,
-5.204407872439E0));
#410=CARTESIAN_POINT('',(9.202799981880E-1,1.495421009191E0,-5.227604036931E0));
#411=CARTESIAN_POINT('',(1.241630701525E0,2.017604033960E0,-4.705421011393E0));
#412=CARTESIAN_POINT('',(1.227355814350E0,1.994407869502E0,-3.967307089106E0));
#413=CARTESIAN_POINT('',(1.812196678308E-9,7.573070891062E-1,
-5.204407872439E0));
#414=CARTESIAN_POINT('',(3.578464959860E-9,1.495421011393E0,-5.227604036931E0));
#415=CARTESIAN_POINT('',(4.828021628641E-9,2.017604036931E0,-4.705421011393E0));
#416=CARTESIAN_POINT('',(4.772514178932E-9,1.994407872439E0,-3.967307089106E0));
#417=CARTESIAN_POINT('',(-4.660457194736E-1,7.573070902215E-1,
-5.204407872439E0));
#418=CARTESIAN_POINT('',(-9.202799910310E-1,1.495421013595E0,
-5.227604036931E0));
#419=CARTESIAN_POINT('',(-1.241630691869E0,2.017604039902E0,-4.705421011393E0));
#420=CARTESIAN_POINT('',(-1.227355804805E0,1.994407875376E0,-3.967307089106E0));
#421=CARTESIAN_POINT('',(-7.850759695888E-1,4.175743808157E-1,
-5.204407872439E0));
#422=CARTESIAN_POINT('',(-1.550254998733E0,8.245657697831E-1,
-5.227604036931E0));
#423=CARTESIAN_POINT('',(-2.091585392934E0,1.112494216114E0,-4.705421011393E0));
#424=CARTESIAN_POINT('',(-2.067538673193E0,1.099703996447E0,-3.967307089106E0));
#425=CARTESIAN_POINT('',(-7.558127165484E-1,-4.755170569232E-2,
-5.204407872439E0));
#426=CARTESIAN_POINT('',(-1.492470139608E0,-9.389826246548E-2,
-5.227604036931E0));
#427=CARTESIAN_POINT('',(-2.013622756221E0,-1.266864060140E-1,
-4.705421011393E0));
#428=CARTESIAN_POINT('',(-1.990472364061E0,-1.252299067906E-1,
-3.967307089106E0));
#429=(BOUNDED_SURFACE()B_SPLINE_SURFACE(3,3,((#401,#402,#403,#404),(#405,#406,
#407,#408),(#409,#410,#411,#412),(#413,#414,#415,#416),(#417,#418,#419,#420),(
#421,#422,#423,#424),(#425,#426,#427,#428)),.UNSPECIFIED.,.F.,.F.,.F.)B_SPLINE_SURFACE_WITH_KNOTS((4,3,4),(4,4),(0.E0,1.E0,2.E0),(0.E0,1.E0),.UNSPECIFIED.)GEOMETRIC_REPRESENTATION_ITEM()RATIONAL_B_SPLINE_SURFACE(((1.409592796749E0,
1.113152711952E0,1.113152711952E0,1.409592796749E0),(1.113152711076E0,
8.790545482410E-1,8.790545482410E-1,1.113152711076E0),(1.113152711076E0,
8.790545482410E-1,8.790545482410E-1,1.113152711076E0),(1.409592796749E0,
1.113152711952E0,1.113152711952E0,1.409592796749E0),(1.113152711076E0,
8.790545482410E-1,8.790545482410E-1,1.113152711076E0),(1.113152711076E0,
8.790545482410E-1,8.790545482410E-1,1.113152711076E0),(1.409592796749E0,
1.113152711952E0,1.113152711952E0,1.409592796749E0)))REPRESENTATION_ITEM('')SURFACE());
#430=ORIENTED_EDGE('',*,*,#164,.T.);
#431=ORIENTED_EDGE('',*,*,#396,.T.);
#432=ORIENTED_EDGE('',*,*,#343,.F.);
#433=ORIENTED_EDGE('',*,*,#393,.F.);
#434=EDGE_LOOP('',(#430,#431,#432,#433));
#435=FACE_OUTER_BOUND('',#434,.F.);
#437=CARTESIAN_POINT('',(0.E0,0.E0,3.0605E1));
#438=DIRECTION('',(0.E0,0.E0,1.E0));
#439=DIRECTION('',(1.E0,0.E0,0.E0));
#440=AXIS2_PLACEMENT_3D('',#437,#438,#439);
#441=PLANE('',#440);
#442=ORIENTED_EDGE('',*,*,#199,.F.);
#443=ORIENTED_EDGE('',*,*,#227,.F.);
#444=EDGE_LOOP('',(#442,#443));
#445=FACE_OUTER_BOUND('',#444,.F.);
#447=CLOSED_SHELL('',(#174,#189,#205,#218,#232,#242,#258,#297,#334,#349,#362,
#400,#436,#446));
#448=MANIFOLD_SOLID_BREP('',#447);
#450=DIMENSIONAL_EXPONENTS(0.E0,0.E0,0.E0,0.E0,0.E0,0.E0,0.E0);
#452=PLANE_ANGLE_MEASURE_WITH_UNIT(PLANE_ANGLE_MEASURE(1.745329251994E-2),#451);
#453=(CONVERSION_BASED_UNIT('DEGREE',#452)NAMED_UNIT(*)PLANE_ANGLE_UNIT());
#455=UNCERTAINTY_MEASURE_WITH_UNIT(LENGTH_MEASURE(2.561132008247E-3),#449,
'closure',
'Maximum model space distance between geometric entities at asserted connectivities');
#458=APPLICATION_CONTEXT(
'CONFIGURATION CONTROLLED 3D DESIGNS OF MECHANICAL PARTS AND ASSEMBLIES');
#459=APPLICATION_PROTOCOL_DEFINITION('international standard',
'config_control_design',1994,#458);
#460=DESIGN_CONTEXT('',#458,'design');
#461=MECHANICAL_CONTEXT('',#458,'mechanical');
#462=PRODUCT('77F','77F','NOT SPECIFIED',(#461));
#463=PRODUCT_DEFINITION_FORMATION_WITH_SPECIFIED_SOURCE('1','LAST_VERSION',#462,
.MADE.);
#467=PRODUCT_CATEGORY('part','');
#468=PRODUCT_RELATED_PRODUCT_CATEGORY('detail','',(#462));
#469=PRODUCT_CATEGORY_RELATIONSHIP('','',#467,#468);
#470=SECURITY_CLASSIFICATION_LEVEL('unclassified');
#471=SECURITY_CLASSIFICATION('','',#470);
#472=CC_DESIGN_SECURITY_CLASSIFICATION(#471,(#463));
#473=APPROVAL_STATUS('approved');
#474=APPROVAL(#473,'');
#475=CC_DESIGN_APPROVAL(#474,(#471,#463,#464));
#476=CALENDAR_DATE(112,7,8);
#477=COORDINATED_UNIVERSAL_TIME_OFFSET(7,0,.BEHIND.);
#478=LOCAL_TIME(16,1,3.3E1,#477);
#479=DATE_AND_TIME(#476,#478);
#480=APPROVAL_DATE_TIME(#479,#474);
#481=DATE_TIME_ROLE('creation_date');
#482=CC_DESIGN_DATE_AND_TIME_ASSIGNMENT(#479,#481,(#464));
#483=DATE_TIME_ROLE('classification_date');
#484=CC_DESIGN_DATE_AND_TIME_ASSIGNMENT(#479,#483,(#471));
#485=PERSON('UNSPECIFIED','UNSPECIFIED',$,$,$,$);
#486=ORGANIZATION('UNSPECIFIED','UNSPECIFIED','UNSPECIFIED');
#487=PERSON_AND_ORGANIZATION(#485,#486);
#488=APPROVAL_ROLE('approver');
#489=APPROVAL_PERSON_ORGANIZATION(#487,#474,#488);
#490=PERSON_AND_ORGANIZATION_ROLE('creator');
#491=CC_DESIGN_PERSON_AND_ORGANIZATION_ASSIGNMENT(#487,#490,(#463,#464));
#492=PERSON_AND_ORGANIZATION_ROLE('design_supplier');
#493=CC_DESIGN_PERSON_AND_ORGANIZATION_ASSIGNMENT(#487,#492,(#463));
#494=PERSON_AND_ORGANIZATION_ROLE('classification_officer');
#495=CC_DESIGN_PERSON_AND_ORGANIZATION_ASSIGNMENT(#487,#494,(#471));
#496=PERSON_AND_ORGANIZATION_ROLE('design_owner');
#497=CC_DESIGN_PERSON_AND_ORGANIZATION_ASSIGNMENT(#487,#496,(#462));
#5=CIRCLE('',#4,3.2E-1);
#10=CIRCLE('',#9,3.2E-1);
#15=CIRCLE('',#14,7.95E-1);
#20=CIRCLE('',#19,7.95E-1);
#41=CIRCLE('',#40,3.2E-1);
#46=CIRCLE('',#45,3.2E-1);
#51=CIRCLE('',#50,3.2E-1);
#56=CIRCLE('',#55,3.2E-1);
#61=CIRCLE('',#60,7.95E-1);
#66=CIRCLE('',#65,7.95E-1);
#71=CIRCLE('',#70,1.2E0);
#76=CIRCLE('',#75,1.2E0);
#81=CIRCLE('',#80,1.995E0);
#86=CIRCLE('',#85,1.995E0);
#95=CIRCLE('',#94,1.995E0);
#100=CIRCLE('',#99,1.995E0);
#109=CIRCLE('',#108,1.2E0);
#114=CIRCLE('',#113,1.2E0);
#119=CIRCLE('',#118,3.2E-1);
#124=CIRCLE('',#123,3.2E-1);
#162=EDGE_CURVE('',#151,#152,#15,.T.);
#164=EDGE_CURVE('',#152,#151,#20,.T.);
#168=EDGE_CURVE('',#135,#136,#5,.T.);
#170=EDGE_CURVE('',#136,#135,#10,.T.);
#174=ADVANCED_FACE('',(#167,#173),#161,.F.);
#181=EDGE_CURVE('',#128,#136,#32,.T.);
#183=EDGE_CURVE('',#127,#128,#41,.T.);
#185=EDGE_CURVE('',#127,#135,#24,.T.);
#189=ADVANCED_FACE('',(#188),#179,.T.);
#195=EDGE_CURVE('',#139,#140,#51,.T.);
#197=EDGE_CURVE('',#139,#131,#28,.T.);
#199=EDGE_CURVE('',#131,#132,#119,.T.);
#201=EDGE_CURVE('',#140,#132,#36,.T.);
#205=ADVANCED_FACE('',(#204),#194,.T.);
#213=EDGE_CURVE('',#128,#127,#46,.T.);
#218=ADVANCED_FACE('',(#217),#210,.T.);
#224=EDGE_CURVE('',#140,#139,#56,.T.);
#227=EDGE_CURVE('',#132,#131,#124,.T.);
#232=ADVANCED_FACE('',(#231),#223,.T.);
#242=ADVANCED_FACE('',(#241),#237,.F.);
#248=EDGE_CURVE('',#143,#144,#61,.T.);
#250=EDGE_CURVE('',#144,#143,#66,.T.);
#258=ADVANCED_FACE('',(#253,#257),#247,.T.);
#289=EDGE_CURVE('',#144,#148,#76,.T.);
#291=EDGE_CURVE('',#147,#148,#95,.T.);
#293=EDGE_CURVE('',#143,#147,#71,.T.);
#297=ADVANCED_FACE('',(#296),#287,.T.);
#329=EDGE_CURVE('',#148,#147,#81,.T.);
#334=ADVANCED_FACE('',(#333),#326,.T.);
#341=EDGE_CURVE('',#156,#147,#104,.T.);
#343=EDGE_CURVE('',#156,#155,#86,.T.);
#345=EDGE_CURVE('',#155,#148,#90,.T.);
#349=ADVANCED_FACE('',(#348),#339,.T.);
#357=EDGE_CURVE('',#155,#156,#100,.T.);
#362=ADVANCED_FACE('',(#361),#354,.T.);
#393=EDGE_CURVE('',#152,#156,#114,.T.);
#396=EDGE_CURVE('',#151,#155,#109,.T.);
#400=ADVANCED_FACE('',(#399),#391,.T.);
#436=ADVANCED_FACE('',(#435),#429,.T.);
#446=ADVANCED_FACE('',(#445),#441,.T.);
#449=(LENGTH_UNIT()NAMED_UNIT(*)SI_UNIT(.MILLI.,.METRE.));
#451=(NAMED_UNIT(*)PLANE_ANGLE_UNIT()SI_UNIT($,.RADIAN.));
#454=(NAMED_UNIT(*)SI_UNIT($,.STERADIAN.)SOLID_ANGLE_UNIT());
#456=(GEOMETRIC_REPRESENTATION_CONTEXT(3)GLOBAL_UNCERTAINTY_ASSIGNED_CONTEXT((
#455))GLOBAL_UNIT_ASSIGNED_CONTEXT((#449,#453,#454))REPRESENTATION_CONTEXT
('ID1','3'));
#457=ADVANCED_BREP_SHAPE_REPRESENTATION('',(#448),#456);
#464=PRODUCT_DEFINITION('design','',#463,#460);
#465=PRODUCT_DEFINITION_SHAPE('','SHAPE FOR 77F.',#464);
#466=SHAPE_DEFINITION_REPRESENTATION(#465,#457);
ENDSEC;
END-ISO-10303-21;
