ISO-10303-21;
HEADER;
FILE_DESCRIPTION((''),'2;1');
FILE_NAME('5800','2012-08-10T',('ryans'),('Bourns, Inc.'),
'PRO/ENGINEER BY PARAMETRIC TECHNOLOGY CORPORATION, 2010100',
'PRO/ENGINEER BY PARAMETRIC TECHNOLOGY CORPORATION, 2010100','');
FILE_SCHEMA(('CONFIG_CONTROL_DESIGN'));
ENDSEC;
DATA;
#1=CARTESIAN_POINT('',(0.E0,0.E0,-3.5E-1));
#2=DIRECTION('',(0.E0,0.E0,-1.E0));
#3=DIRECTION('',(-1.E0,0.E0,0.E0));
#4=AXIS2_PLACEMENT_3D('',#1,#2,#3);
#6=CARTESIAN_POINT('',(0.E0,0.E0,-3.5E-1));
#7=DIRECTION('',(0.E0,0.E0,-1.E0));
#8=DIRECTION('',(1.E0,0.E0,0.E0));
#9=AXIS2_PLACEMENT_3D('',#6,#7,#8);
#11=CARTESIAN_POINT('',(0.E0,0.E0,-3.5E-1));
#12=DIRECTION('',(0.E0,0.E0,1.E0));
#13=DIRECTION('',(1.E0,0.E0,0.E0));
#14=AXIS2_PLACEMENT_3D('',#11,#12,#13);
#16=CARTESIAN_POINT('',(0.E0,0.E0,-3.5E-1));
#17=DIRECTION('',(0.E0,0.E0,1.E0));
#18=DIRECTION('',(-1.E0,0.E0,0.E0));
#19=AXIS2_PLACEMENT_3D('',#16,#17,#18);
#21=CARTESIAN_POINT('',(0.E0,0.E0,-2.749999994514E-1));
#22=DIRECTION('',(0.E0,0.E0,-1.E0));
#23=DIRECTION('',(-1.E0,0.E0,0.E0));
#24=AXIS2_PLACEMENT_3D('',#21,#22,#23);
#26=DIRECTION('',(-1.044348681266E-9,0.E0,1.E0));
#27=VECTOR('',#26,7.500000002457E-2);
#28=CARTESIAN_POINT('',(-1.375E-1,0.E0,-3.5E-1));
#29=LINE('',#28,#27);
#30=CARTESIAN_POINT('',(-7.1E-1,0.E0,-9.543455177286E-2));
#31=DIRECTION('',(0.E0,1.E0,0.E0));
#32=DIRECTION('',(1.E0,0.E0,0.E0));
#33=AXIS2_PLACEMENT_3D('',#30,#31,#32);
#35=CARTESIAN_POINT('',(0.E0,0.E0,9.543455177286E-2));
#36=DIRECTION('',(0.E0,0.E0,1.E0));
#37=DIRECTION('',(1.E0,0.E0,0.E0));
#38=AXIS2_PLACEMENT_3D('',#35,#36,#37);
#40=CARTESIAN_POINT('',(0.E0,0.E0,-9.543455177286E-2));
#41=DIRECTION('',(0.E0,0.E0,-1.E0));
#42=DIRECTION('',(-1.E0,0.E0,0.E0));
#43=AXIS2_PLACEMENT_3D('',#40,#41,#42);
#45=DIRECTION('',(0.E0,0.E0,1.E0));
#46=VECTOR('',#45,1.908691040165E-1);
#47=CARTESIAN_POINT('',(1.1E-1,0.E0,-9.543455200826E-2));
#48=LINE('',#47,#46);
#49=CARTESIAN_POINT('',(7.1E-1,0.E0,9.543455177286E-2));
#50=DIRECTION('',(0.E0,1.E0,0.E0));
#51=DIRECTION('',(-1.E0,0.E0,0.E0));
#52=AXIS2_PLACEMENT_3D('',#49,#50,#51);
#54=CARTESIAN_POINT('',(-7.1E-1,0.E0,9.543455177286E-2));
#55=DIRECTION('',(0.E0,-1.E0,0.E0));
#56=DIRECTION('',(1.E0,0.E0,0.E0));
#57=AXIS2_PLACEMENT_3D('',#54,#55,#56);
#59=CARTESIAN_POINT('',(0.E0,0.E0,9.543455177286E-2));
#60=DIRECTION('',(0.E0,0.E0,1.E0));
#61=DIRECTION('',(-1.E0,0.E0,0.E0));
#62=AXIS2_PLACEMENT_3D('',#59,#60,#61);
#64=CARTESIAN_POINT('',(0.E0,0.E0,-9.543455177286E-2));
#65=DIRECTION('',(0.E0,0.E0,-1.E0));
#66=DIRECTION('',(1.E0,0.E0,0.E0));
#67=AXIS2_PLACEMENT_3D('',#64,#65,#66);
#69=DIRECTION('',(0.E0,0.E0,1.E0));
#70=VECTOR('',#69,1.908691040165E-1);
#71=CARTESIAN_POINT('',(-1.1E-1,0.E0,-9.543455200826E-2));
#72=LINE('',#71,#70);
#73=CARTESIAN_POINT('',(7.1E-1,0.E0,-9.543455177286E-2));
#74=DIRECTION('',(0.E0,-1.E0,0.E0));
#75=DIRECTION('',(-1.E0,0.E0,0.E0));
#76=AXIS2_PLACEMENT_3D('',#73,#74,#75);
#78=CARTESIAN_POINT('',(0.E0,0.E0,-2.749999994514E-1));
#79=DIRECTION('',(0.E0,0.E0,-1.E0));
#80=DIRECTION('',(1.E0,0.E0,0.E0));
#81=AXIS2_PLACEMENT_3D('',#78,#79,#80);
#83=DIRECTION('',(1.044347941117E-9,0.E0,1.E0));
#84=VECTOR('',#83,7.500000002457E-2);
#85=CARTESIAN_POINT('',(1.375E-1,0.E0,-3.5E-1));
#86=LINE('',#85,#84);
#87=CARTESIAN_POINT('',(0.E0,0.E0,2.749999994514E-1));
#88=DIRECTION('',(0.E0,0.E0,1.E0));
#89=DIRECTION('',(-1.E0,0.E0,0.E0));
#90=AXIS2_PLACEMENT_3D('',#87,#88,#89);
#92=DIRECTION('',(-1.044348681266E-9,0.E0,-1.E0));
#93=VECTOR('',#92,7.500000002457E-2);
#94=CARTESIAN_POINT('',(-1.375E-1,0.E0,3.5E-1));
#95=LINE('',#94,#93);
#96=CARTESIAN_POINT('',(0.E0,0.E0,2.749999994514E-1));
#97=DIRECTION('',(0.E0,0.E0,1.E0));
#98=DIRECTION('',(1.E0,0.E0,0.E0));
#99=AXIS2_PLACEMENT_3D('',#96,#97,#98);
#101=DIRECTION('',(1.044348681266E-9,0.E0,-1.E0));
#102=VECTOR('',#101,7.500000002457E-2);
#103=CARTESIAN_POINT('',(1.375E-1,0.E0,3.5E-1));
#104=LINE('',#103,#102);
#105=CARTESIAN_POINT('',(0.E0,0.E0,3.5E-1));
#106=DIRECTION('',(0.E0,0.E0,1.E0));
#107=DIRECTION('',(1.E0,0.E0,0.E0));
#108=AXIS2_PLACEMENT_3D('',#105,#106,#107);
#110=CARTESIAN_POINT('',(0.E0,0.E0,3.5E-1));
#111=DIRECTION('',(0.E0,0.E0,1.E0));
#112=DIRECTION('',(-1.E0,0.E0,0.E0));
#113=AXIS2_PLACEMENT_3D('',#110,#111,#112);
#115=CARTESIAN_POINT('',(0.E0,0.E0,3.5E-1));
#116=DIRECTION('',(0.E0,0.E0,1.E0));
#117=DIRECTION('',(1.E0,0.E0,0.E0));
#118=AXIS2_PLACEMENT_3D('',#115,#116,#117);
#120=CARTESIAN_POINT('',(0.E0,0.E0,3.5E-1));
#121=DIRECTION('',(0.E0,0.E0,1.E0));
#122=DIRECTION('',(-1.E0,0.E0,0.E0));
#123=AXIS2_PLACEMENT_3D('',#120,#121,#122);
#125=DIRECTION('',(0.E0,0.E0,1.E0));
#126=VECTOR('',#125,1.E0);
#127=CARTESIAN_POINT('',(1.25E-2,0.E0,-1.35E0));
#128=LINE('',#127,#126);
#129=DIRECTION('',(0.E0,0.E0,1.E0));
#130=VECTOR('',#129,1.E0);
#131=CARTESIAN_POINT('',(1.25E-2,0.E0,3.5E-1));
#132=LINE('',#131,#130);
#133=DIRECTION('',(0.E0,0.E0,1.E0));
#134=VECTOR('',#133,1.E0);
#135=CARTESIAN_POINT('',(-1.25E-2,0.E0,-1.35E0));
#136=LINE('',#135,#134);
#137=DIRECTION('',(0.E0,0.E0,1.E0));
#138=VECTOR('',#137,1.E0);
#139=CARTESIAN_POINT('',(-1.25E-2,0.E0,3.5E-1));
#140=LINE('',#139,#138);
#141=CARTESIAN_POINT('',(0.E0,0.E0,-1.35E0));
#142=DIRECTION('',(0.E0,0.E0,1.E0));
#143=DIRECTION('',(1.E0,0.E0,0.E0));
#144=AXIS2_PLACEMENT_3D('',#141,#142,#143);
#146=CARTESIAN_POINT('',(0.E0,0.E0,-1.35E0));
#147=DIRECTION('',(0.E0,0.E0,1.E0));
#148=DIRECTION('',(-1.E0,0.E0,0.E0));
#149=AXIS2_PLACEMENT_3D('',#146,#147,#148);
#151=CARTESIAN_POINT('',(0.E0,0.E0,1.35E0));
#152=DIRECTION('',(0.E0,0.E0,1.E0));
#153=DIRECTION('',(1.E0,0.E0,0.E0));
#154=AXIS2_PLACEMENT_3D('',#151,#152,#153);
#156=CARTESIAN_POINT('',(0.E0,0.E0,1.35E0));
#157=DIRECTION('',(0.E0,0.E0,1.E0));
#158=DIRECTION('',(-1.E0,0.E0,0.E0));
#159=AXIS2_PLACEMENT_3D('',#156,#157,#158);
#161=CARTESIAN_POINT('',(1.375E-1,0.E0,3.5E-1));
#162=CARTESIAN_POINT('',(-1.375E-1,0.E0,3.5E-1));
#163=VERTEX_POINT('',#161);
#164=VERTEX_POINT('',#162);
#165=CARTESIAN_POINT('',(-1.375E-1,0.E0,-3.5E-1));
#166=CARTESIAN_POINT('',(1.375E-1,0.E0,-3.5E-1));
#167=VERTEX_POINT('',#165);
#168=VERTEX_POINT('',#166);
#169=CARTESIAN_POINT('',(1.1E-1,0.E0,9.543455177286E-2));
#170=CARTESIAN_POINT('',(-1.1E-1,0.E0,9.543455177286E-2));
#171=VERTEX_POINT('',#169);
#172=VERTEX_POINT('',#170);
#173=CARTESIAN_POINT('',(1.375E-1,0.E0,2.749999994514E-1));
#174=CARTESIAN_POINT('',(-1.375E-1,0.E0,2.749999994514E-1));
#175=VERTEX_POINT('',#173);
#176=VERTEX_POINT('',#174);
#177=CARTESIAN_POINT('',(-1.1E-1,0.E0,-9.543455177286E-2));
#178=CARTESIAN_POINT('',(1.1E-1,0.E0,-9.543455177286E-2));
#179=VERTEX_POINT('',#177);
#180=VERTEX_POINT('',#178);
#181=CARTESIAN_POINT('',(-1.375E-1,0.E0,-2.749999994514E-1));
#182=CARTESIAN_POINT('',(1.375E-1,0.E0,-2.749999994514E-1));
#183=VERTEX_POINT('',#181);
#184=VERTEX_POINT('',#182);
#185=CARTESIAN_POINT('',(1.25E-2,0.E0,-1.35E0));
#186=CARTESIAN_POINT('',(-1.25E-2,0.E0,-1.35E0));
#187=VERTEX_POINT('',#185);
#188=VERTEX_POINT('',#186);
#189=CARTESIAN_POINT('',(1.25E-2,0.E0,1.35E0));
#190=CARTESIAN_POINT('',(-1.25E-2,0.E0,1.35E0));
#191=VERTEX_POINT('',#189);
#192=VERTEX_POINT('',#190);
#193=CARTESIAN_POINT('',(1.25E-2,0.E0,-3.5E-1));
#194=CARTESIAN_POINT('',(-1.25E-2,0.E0,-3.5E-1));
#195=VERTEX_POINT('',#193);
#196=VERTEX_POINT('',#194);
#197=CARTESIAN_POINT('',(1.25E-2,0.E0,3.5E-1));
#198=CARTESIAN_POINT('',(-1.25E-2,0.E0,3.5E-1));
#199=VERTEX_POINT('',#197);
#200=VERTEX_POINT('',#198);
#201=CARTESIAN_POINT('',(0.E0,0.E0,-3.5E-1));
#202=DIRECTION('',(0.E0,0.E0,1.E0));
#203=DIRECTION('',(1.E0,0.E0,0.E0));
#204=AXIS2_PLACEMENT_3D('',#201,#202,#203);
#205=PLANE('',#204);
#207=ORIENTED_EDGE('',*,*,#206,.F.);
#209=ORIENTED_EDGE('',*,*,#208,.F.);
#210=EDGE_LOOP('',(#207,#209));
#211=FACE_OUTER_BOUND('',#210,.F.);
#213=ORIENTED_EDGE('',*,*,#212,.F.);
#215=ORIENTED_EDGE('',*,*,#214,.F.);
#216=EDGE_LOOP('',(#213,#215));
#217=FACE_BOUND('',#216,.F.);
#219=CARTESIAN_POINT('',(0.E0,0.E0,-3.5E-1));
#220=DIRECTION('',(0.E0,0.E0,-1.E0));
#221=DIRECTION('',(-1.E0,0.E0,0.E0));
#222=AXIS2_PLACEMENT_3D('',#219,#220,#221);
#223=CYLINDRICAL_SURFACE('',#222,1.375E-1);
#225=ORIENTED_EDGE('',*,*,#224,.F.);
#227=ORIENTED_EDGE('',*,*,#226,.F.);
#228=ORIENTED_EDGE('',*,*,#206,.T.);
#230=ORIENTED_EDGE('',*,*,#229,.T.);
#231=EDGE_LOOP('',(#225,#227,#228,#230));
#232=FACE_OUTER_BOUND('',#231,.F.);
#234=CARTESIAN_POINT('',(0.E0,0.E0,-9.543455177286E-2));
#235=DIRECTION('',(0.E0,0.E0,1.E0));
#236=DIRECTION('',(-9.999999998079E-1,-1.960068444812E-5,0.E0));
#237=AXIS2_PLACEMENT_3D('',#234,#235,#236);
#238=TOROIDAL_SURFACE('',#237,7.1E-1,6.E-1);
#240=ORIENTED_EDGE('',*,*,#239,.F.);
#242=ORIENTED_EDGE('',*,*,#241,.T.);
#243=ORIENTED_EDGE('',*,*,#224,.T.);
#245=ORIENTED_EDGE('',*,*,#244,.F.);
#246=EDGE_LOOP('',(#240,#242,#243,#245));
#247=FACE_OUTER_BOUND('',#246,.F.);
#249=CARTESIAN_POINT('',(0.E0,0.E0,-3.5E-1));
#250=DIRECTION('',(0.E0,0.E0,1.E0));
#251=DIRECTION('',(1.E0,0.E0,0.E0));
#252=AXIS2_PLACEMENT_3D('',#249,#250,#251);
#253=CYLINDRICAL_SURFACE('',#252,1.1E-1);
#255=ORIENTED_EDGE('',*,*,#254,.T.);
#257=ORIENTED_EDGE('',*,*,#256,.F.);
#258=ORIENTED_EDGE('',*,*,#239,.T.);
#260=ORIENTED_EDGE('',*,*,#259,.T.);
#261=EDGE_LOOP('',(#255,#257,#258,#260));
#262=FACE_OUTER_BOUND('',#261,.F.);
#264=CARTESIAN_POINT('',(0.E0,0.E0,9.543455177286E-2));
#265=DIRECTION('',(0.E0,0.E0,1.E0));
#266=DIRECTION('',(9.999999998079E-1,-1.960068445271E-5,0.E0));
#267=AXIS2_PLACEMENT_3D('',#264,#265,#266);
#268=TOROIDAL_SURFACE('',#267,7.1E-1,6.E-1);
#269=ORIENTED_EDGE('',*,*,#254,.F.);
#271=ORIENTED_EDGE('',*,*,#270,.T.);
#273=ORIENTED_EDGE('',*,*,#272,.T.);
#275=ORIENTED_EDGE('',*,*,#274,.F.);
#276=EDGE_LOOP('',(#269,#271,#273,#275));
#277=FACE_OUTER_BOUND('',#276,.F.);
#279=CARTESIAN_POINT('',(0.E0,0.E0,9.543455177286E-2));
#280=DIRECTION('',(0.E0,0.E0,1.E0));
#281=DIRECTION('',(-9.999999998079E-1,1.960068445117E-5,0.E0));
#282=AXIS2_PLACEMENT_3D('',#279,#280,#281);
#283=TOROIDAL_SURFACE('',#282,7.1E-1,6.E-1);
#285=ORIENTED_EDGE('',*,*,#284,.F.);
#286=ORIENTED_EDGE('',*,*,#274,.T.);
#288=ORIENTED_EDGE('',*,*,#287,.T.);
#289=ORIENTED_EDGE('',*,*,#270,.F.);
#290=EDGE_LOOP('',(#285,#286,#288,#289));
#291=FACE_OUTER_BOUND('',#290,.F.);
#293=CARTESIAN_POINT('',(0.E0,0.E0,-3.5E-1));
#294=DIRECTION('',(0.E0,0.E0,1.E0));
#295=DIRECTION('',(1.E0,0.E0,0.E0));
#296=AXIS2_PLACEMENT_3D('',#293,#294,#295);
#297=CYLINDRICAL_SURFACE('',#296,1.1E-1);
#298=ORIENTED_EDGE('',*,*,#284,.T.);
#299=ORIENTED_EDGE('',*,*,#259,.F.);
#301=ORIENTED_EDGE('',*,*,#300,.T.);
#302=ORIENTED_EDGE('',*,*,#256,.T.);
#303=EDGE_LOOP('',(#298,#299,#301,#302));
#304=FACE_OUTER_BOUND('',#303,.F.);
#306=CARTESIAN_POINT('',(0.E0,0.E0,-9.543455177286E-2));
#307=DIRECTION('',(0.E0,0.E0,1.E0));
#308=DIRECTION('',(9.999999998079E-1,1.960068445576E-5,0.E0));
#309=AXIS2_PLACEMENT_3D('',#306,#307,#308);
#310=TOROIDAL_SURFACE('',#309,7.1E-1,6.E-1);
#311=ORIENTED_EDGE('',*,*,#300,.F.);
#312=ORIENTED_EDGE('',*,*,#244,.T.);
#314=ORIENTED_EDGE('',*,*,#313,.T.);
#315=ORIENTED_EDGE('',*,*,#241,.F.);
#316=EDGE_LOOP('',(#311,#312,#314,#315));
#317=FACE_OUTER_BOUND('',#316,.F.);
#319=CARTESIAN_POINT('',(0.E0,0.E0,-3.5E-1));
#320=DIRECTION('',(0.E0,0.E0,-1.E0));
#321=DIRECTION('',(-1.E0,0.E0,0.E0));
#322=AXIS2_PLACEMENT_3D('',#319,#320,#321);
#323=CYLINDRICAL_SURFACE('',#322,1.375E-1);
#324=ORIENTED_EDGE('',*,*,#313,.F.);
#325=ORIENTED_EDGE('',*,*,#229,.F.);
#326=ORIENTED_EDGE('',*,*,#208,.T.);
#327=ORIENTED_EDGE('',*,*,#226,.T.);
#328=EDGE_LOOP('',(#324,#325,#326,#327));
#329=FACE_OUTER_BOUND('',#328,.F.);
#331=CARTESIAN_POINT('',(0.E0,0.E0,3.5E-1));
#332=DIRECTION('',(0.E0,0.E0,1.E0));
#333=DIRECTION('',(1.E0,0.E0,0.E0));
#334=AXIS2_PLACEMENT_3D('',#331,#332,#333);
#335=CYLINDRICAL_SURFACE('',#334,1.375E-1);
#336=ORIENTED_EDGE('',*,*,#287,.F.);
#338=ORIENTED_EDGE('',*,*,#337,.F.);
#340=ORIENTED_EDGE('',*,*,#339,.T.);
#342=ORIENTED_EDGE('',*,*,#341,.T.);
#343=EDGE_LOOP('',(#336,#338,#340,#342));
#344=FACE_OUTER_BOUND('',#343,.F.);
#346=CARTESIAN_POINT('',(0.E0,0.E0,3.5E-1));
#347=DIRECTION('',(0.E0,0.E0,1.E0));
#348=DIRECTION('',(1.E0,0.E0,0.E0));
#349=AXIS2_PLACEMENT_3D('',#346,#347,#348);
#350=CYLINDRICAL_SURFACE('',#349,1.375E-1);
#351=ORIENTED_EDGE('',*,*,#272,.F.);
#352=ORIENTED_EDGE('',*,*,#341,.F.);
#354=ORIENTED_EDGE('',*,*,#353,.T.);
#355=ORIENTED_EDGE('',*,*,#337,.T.);
#356=EDGE_LOOP('',(#351,#352,#354,#355));
#357=FACE_OUTER_BOUND('',#356,.F.);
#359=CARTESIAN_POINT('',(0.E0,0.E0,3.5E-1));
#360=DIRECTION('',(0.E0,0.E0,1.E0));
#361=DIRECTION('',(1.E0,0.E0,0.E0));
#362=AXIS2_PLACEMENT_3D('',#359,#360,#361);
#363=PLANE('',#362);
#364=ORIENTED_EDGE('',*,*,#353,.F.);
#365=ORIENTED_EDGE('',*,*,#339,.F.);
#366=EDGE_LOOP('',(#364,#365));
#367=FACE_OUTER_BOUND('',#366,.F.);
#369=ORIENTED_EDGE('',*,*,#368,.T.);
#371=ORIENTED_EDGE('',*,*,#370,.T.);
#372=EDGE_LOOP('',(#369,#371));
#373=FACE_BOUND('',#372,.F.);
#375=CARTESIAN_POINT('',(0.E0,0.E0,-1.35E0));
#376=DIRECTION('',(0.E0,0.E0,1.E0));
#377=DIRECTION('',(1.E0,0.E0,0.E0));
#378=AXIS2_PLACEMENT_3D('',#375,#376,#377);
#379=CYLINDRICAL_SURFACE('',#378,1.25E-2);
#380=ORIENTED_EDGE('',*,*,#212,.T.);
#382=ORIENTED_EDGE('',*,*,#381,.F.);
#384=ORIENTED_EDGE('',*,*,#383,.F.);
#386=ORIENTED_EDGE('',*,*,#385,.T.);
#387=EDGE_LOOP('',(#380,#382,#384,#386));
#388=FACE_OUTER_BOUND('',#387,.F.);
#390=CARTESIAN_POINT('',(0.E0,0.E0,-1.35E0));
#391=DIRECTION('',(0.E0,0.E0,1.E0));
#392=DIRECTION('',(1.E0,0.E0,0.E0));
#393=AXIS2_PLACEMENT_3D('',#390,#391,#392);
#394=CYLINDRICAL_SURFACE('',#393,1.25E-2);
#395=ORIENTED_EDGE('',*,*,#368,.F.);
#397=ORIENTED_EDGE('',*,*,#396,.T.);
#399=ORIENTED_EDGE('',*,*,#398,.T.);
#401=ORIENTED_EDGE('',*,*,#400,.F.);
#402=EDGE_LOOP('',(#395,#397,#399,#401));
#403=FACE_OUTER_BOUND('',#402,.F.);
#405=CARTESIAN_POINT('',(0.E0,0.E0,-1.35E0));
#406=DIRECTION('',(0.E0,0.E0,1.E0));
#407=DIRECTION('',(1.E0,0.E0,0.E0));
#408=AXIS2_PLACEMENT_3D('',#405,#406,#407);
#409=CYLINDRICAL_SURFACE('',#408,1.25E-2);
#410=ORIENTED_EDGE('',*,*,#214,.T.);
#411=ORIENTED_EDGE('',*,*,#385,.F.);
#413=ORIENTED_EDGE('',*,*,#412,.F.);
#414=ORIENTED_EDGE('',*,*,#381,.T.);
#415=EDGE_LOOP('',(#410,#411,#413,#414));
#416=FACE_OUTER_BOUND('',#415,.F.);
#418=CARTESIAN_POINT('',(0.E0,0.E0,-1.35E0));
#419=DIRECTION('',(0.E0,0.E0,1.E0));
#420=DIRECTION('',(1.E0,0.E0,0.E0));
#421=AXIS2_PLACEMENT_3D('',#418,#419,#420);
#422=CYLINDRICAL_SURFACE('',#421,1.25E-2);
#423=ORIENTED_EDGE('',*,*,#370,.F.);
#424=ORIENTED_EDGE('',*,*,#400,.T.);
#426=ORIENTED_EDGE('',*,*,#425,.T.);
#427=ORIENTED_EDGE('',*,*,#396,.F.);
#428=EDGE_LOOP('',(#423,#424,#426,#427));
#429=FACE_OUTER_BOUND('',#428,.F.);
#431=CARTESIAN_POINT('',(0.E0,0.E0,-1.35E0));
#432=DIRECTION('',(0.E0,0.E0,1.E0));
#433=DIRECTION('',(1.E0,0.E0,0.E0));
#434=AXIS2_PLACEMENT_3D('',#431,#432,#433);
#435=PLANE('',#434);
#436=ORIENTED_EDGE('',*,*,#383,.T.);
#437=ORIENTED_EDGE('',*,*,#412,.T.);
#438=EDGE_LOOP('',(#436,#437));
#439=FACE_OUTER_BOUND('',#438,.F.);
#441=CARTESIAN_POINT('',(0.E0,0.E0,1.35E0));
#442=DIRECTION('',(0.E0,0.E0,1.E0));
#443=DIRECTION('',(1.E0,0.E0,0.E0));
#444=AXIS2_PLACEMENT_3D('',#441,#442,#443);
#445=PLANE('',#444);
#446=ORIENTED_EDGE('',*,*,#398,.F.);
#447=ORIENTED_EDGE('',*,*,#425,.F.);
#448=EDGE_LOOP('',(#446,#447));
#449=FACE_OUTER_BOUND('',#448,.F.);
#451=CLOSED_SHELL('',(#218,#233,#248,#263,#278,#292,#305,#318,#330,#345,#358,
#374,#389,#404,#417,#430,#440,#450));
#452=MANIFOLD_SOLID_BREP('',#451);
#453=DIMENSIONAL_EXPONENTS(1.E0,0.E0,0.E0,0.E0,0.E0,0.E0,0.E0);
#455=LENGTH_MEASURE_WITH_UNIT(LENGTH_MEASURE(2.54E1),#454);
#456=(CONVERSION_BASED_UNIT('INCH',#455)LENGTH_UNIT()NAMED_UNIT(#453));
#457=DIMENSIONAL_EXPONENTS(0.E0,0.E0,0.E0,0.E0,0.E0,0.E0,0.E0);
#459=PLANE_ANGLE_MEASURE_WITH_UNIT(PLANE_ANGLE_MEASURE(1.745329251994E-2),#458);
#460=(CONVERSION_BASED_UNIT('DEGREE',#459)NAMED_UNIT(*)PLANE_ANGLE_UNIT());
#462=UNCERTAINTY_MEASURE_WITH_UNIT(LENGTH_MEASURE(1.136570181133E-4),#456,
'closure',
'Maximum model space distance between geometric entities at asserted connectivities');
#465=APPLICATION_CONTEXT(
'CONFIGURATION CONTROLLED 3D DESIGNS OF MECHANICAL PARTS AND ASSEMBLIES');
#466=APPLICATION_PROTOCOL_DEFINITION('international standard',
'config_control_design',1994,#465);
#467=DESIGN_CONTEXT('',#465,'design');
#468=MECHANICAL_CONTEXT('',#465,'mechanical');
#469=PRODUCT('5800','5800','NOT SPECIFIED',(#468));
#470=PRODUCT_DEFINITION_FORMATION_WITH_SPECIFIED_SOURCE('1','LAST_VERSION',#469,
.MADE.);
#474=PRODUCT_CATEGORY('part','');
#475=PRODUCT_RELATED_PRODUCT_CATEGORY('detail','',(#469));
#476=PRODUCT_CATEGORY_RELATIONSHIP('','',#474,#475);
#477=SECURITY_CLASSIFICATION_LEVEL('unclassified');
#478=SECURITY_CLASSIFICATION('','',#477);
#479=CC_DESIGN_SECURITY_CLASSIFICATION(#478,(#470));
#480=APPROVAL_STATUS('approved');
#481=APPROVAL(#480,'');
#482=CC_DESIGN_APPROVAL(#481,(#478,#470,#471));
#483=CALENDAR_DATE(112,10,8);
#484=COORDINATED_UNIVERSAL_TIME_OFFSET(7,0,.BEHIND.);
#485=LOCAL_TIME(9,21,4.1E1,#484);
#486=DATE_AND_TIME(#483,#485);
#487=APPROVAL_DATE_TIME(#486,#481);
#488=DATE_TIME_ROLE('creation_date');
#489=CC_DESIGN_DATE_AND_TIME_ASSIGNMENT(#486,#488,(#471));
#490=DATE_TIME_ROLE('classification_date');
#491=CC_DESIGN_DATE_AND_TIME_ASSIGNMENT(#486,#490,(#478));
#492=PERSON('UNSPECIFIED','UNSPECIFIED',$,$,$,$);
#493=ORGANIZATION('UNSPECIFIED','UNSPECIFIED','UNSPECIFIED');
#494=PERSON_AND_ORGANIZATION(#492,#493);
#495=APPROVAL_ROLE('approver');
#496=APPROVAL_PERSON_ORGANIZATION(#494,#481,#495);
#497=PERSON_AND_ORGANIZATION_ROLE('creator');
#498=CC_DESIGN_PERSON_AND_ORGANIZATION_ASSIGNMENT(#494,#497,(#470,#471));
#499=PERSON_AND_ORGANIZATION_ROLE('design_supplier');
#500=CC_DESIGN_PERSON_AND_ORGANIZATION_ASSIGNMENT(#494,#499,(#470));
#501=PERSON_AND_ORGANIZATION_ROLE('classification_officer');
#502=CC_DESIGN_PERSON_AND_ORGANIZATION_ASSIGNMENT(#494,#501,(#478));
#503=PERSON_AND_ORGANIZATION_ROLE('design_owner');
#504=CC_DESIGN_PERSON_AND_ORGANIZATION_ASSIGNMENT(#494,#503,(#469));
#5=CIRCLE('',#4,1.375E-1);
#10=CIRCLE('',#9,1.375E-1);
#15=CIRCLE('',#14,1.25E-2);
#20=CIRCLE('',#19,1.25E-2);
#25=CIRCLE('',#24,1.375E-1);
#34=CIRCLE('',#33,6.E-1);
#39=CIRCLE('',#38,1.1E-1);
#44=CIRCLE('',#43,1.1E-1);
#53=CIRCLE('',#52,6.E-1);
#58=CIRCLE('',#57,6.E-1);
#63=CIRCLE('',#62,1.1E-1);
#68=CIRCLE('',#67,1.1E-1);
#77=CIRCLE('',#76,6.E-1);
#82=CIRCLE('',#81,1.375E-1);
#91=CIRCLE('',#90,1.375E-1);
#100=CIRCLE('',#99,1.375E-1);
#109=CIRCLE('',#108,1.375E-1);
#114=CIRCLE('',#113,1.375E-1);
#119=CIRCLE('',#118,1.25E-2);
#124=CIRCLE('',#123,1.25E-2);
#145=CIRCLE('',#144,1.25E-2);
#150=CIRCLE('',#149,1.25E-2);
#155=CIRCLE('',#154,1.25E-2);
#160=CIRCLE('',#159,1.25E-2);
#206=EDGE_CURVE('',#167,#168,#5,.T.);
#208=EDGE_CURVE('',#168,#167,#10,.T.);
#212=EDGE_CURVE('',#195,#196,#15,.T.);
#214=EDGE_CURVE('',#196,#195,#20,.T.);
#218=ADVANCED_FACE('',(#211,#217),#205,.F.);
#224=EDGE_CURVE('',#183,#184,#25,.T.);
#226=EDGE_CURVE('',#167,#183,#29,.T.);
#229=EDGE_CURVE('',#168,#184,#86,.T.);
#233=ADVANCED_FACE('',(#232),#223,.T.);
#239=EDGE_CURVE('',#179,#180,#44,.T.);
#241=EDGE_CURVE('',#179,#183,#34,.T.);
#244=EDGE_CURVE('',#180,#184,#77,.T.);
#248=ADVANCED_FACE('',(#247),#238,.F.);
#254=EDGE_CURVE('',#171,#172,#39,.T.);
#256=EDGE_CURVE('',#179,#172,#72,.T.);
#259=EDGE_CURVE('',#180,#171,#48,.T.);
#263=ADVANCED_FACE('',(#262),#253,.T.);
#270=EDGE_CURVE('',#171,#175,#53,.T.);
#272=EDGE_CURVE('',#175,#176,#100,.T.);
#274=EDGE_CURVE('',#172,#176,#58,.T.);
#278=ADVANCED_FACE('',(#277),#268,.F.);
#284=EDGE_CURVE('',#172,#171,#63,.T.);
#287=EDGE_CURVE('',#176,#175,#91,.T.);
#292=ADVANCED_FACE('',(#291),#283,.F.);
#300=EDGE_CURVE('',#180,#179,#68,.T.);
#305=ADVANCED_FACE('',(#304),#297,.T.);
#313=EDGE_CURVE('',#184,#183,#82,.T.);
#318=ADVANCED_FACE('',(#317),#310,.F.);
#330=ADVANCED_FACE('',(#329),#323,.T.);
#337=EDGE_CURVE('',#164,#176,#95,.T.);
#339=EDGE_CURVE('',#164,#163,#114,.T.);
#341=EDGE_CURVE('',#163,#175,#104,.T.);
#345=ADVANCED_FACE('',(#344),#335,.T.);
#353=EDGE_CURVE('',#163,#164,#109,.T.);
#358=ADVANCED_FACE('',(#357),#350,.T.);
#368=EDGE_CURVE('',#199,#200,#119,.T.);
#370=EDGE_CURVE('',#200,#199,#124,.T.);
#374=ADVANCED_FACE('',(#367,#373),#363,.T.);
#381=EDGE_CURVE('',#188,#196,#136,.T.);
#383=EDGE_CURVE('',#187,#188,#145,.T.);
#385=EDGE_CURVE('',#187,#195,#128,.T.);
#389=ADVANCED_FACE('',(#388),#379,.T.);
#396=EDGE_CURVE('',#199,#191,#132,.T.);
#398=EDGE_CURVE('',#191,#192,#155,.T.);
#400=EDGE_CURVE('',#200,#192,#140,.T.);
#404=ADVANCED_FACE('',(#403),#394,.T.);
#412=EDGE_CURVE('',#188,#187,#150,.T.);
#417=ADVANCED_FACE('',(#416),#409,.T.);
#425=EDGE_CURVE('',#192,#191,#160,.T.);
#430=ADVANCED_FACE('',(#429),#422,.T.);
#440=ADVANCED_FACE('',(#439),#435,.F.);
#450=ADVANCED_FACE('',(#449),#445,.T.);
#454=(LENGTH_UNIT()NAMED_UNIT(*)SI_UNIT(.MILLI.,.METRE.));
#458=(NAMED_UNIT(*)PLANE_ANGLE_UNIT()SI_UNIT($,.RADIAN.));
#461=(NAMED_UNIT(*)SI_UNIT($,.STERADIAN.)SOLID_ANGLE_UNIT());
#463=(GEOMETRIC_REPRESENTATION_CONTEXT(3)GLOBAL_UNCERTAINTY_ASSIGNED_CONTEXT((
#462))GLOBAL_UNIT_ASSIGNED_CONTEXT((#456,#460,#461))REPRESENTATION_CONTEXT
('ID1','3'));
#464=ADVANCED_BREP_SHAPE_REPRESENTATION('',(#452),#463);
#471=PRODUCT_DEFINITION('design','',#470,#467);
#472=PRODUCT_DEFINITION_SHAPE('','SHAPE FOR 5800.',#471);
#473=SHAPE_DEFINITION_REPRESENTATION(#472,#464);
ENDSEC;
END-ISO-10303-21;
