ISO-10303-21;
HEADER;
FILE_DESCRIPTION((''),'2;1');
FILE_NAME('3260W','2013-08-02T',('MaxM'),('Bourns, Inc.'),
'PRO/ENGINEER BY PARAMETRIC TECHNOLOGY CORPORATION, 2012230',
'PRO/ENGINEER BY PARAMETRIC TECHNOLOGY CORPORATION, 2012230','');
FILE_SCHEMA(('CONFIG_CONTROL_DESIGN'));
ENDSEC;
DATA;
#1=DIRECTION('',(0.E0,-1.E0,0.E0));
#2=VECTOR('',#1,2.5E-1);
#3=CARTESIAN_POINT('',(0.E0,0.E0,0.E0));
#4=LINE('',#3,#2);
#5=DIRECTION('',(1.E0,0.E0,0.E0));
#6=VECTOR('',#5,2.5E-1);
#7=CARTESIAN_POINT('',(0.E0,-2.5E-1,0.E0));
#8=LINE('',#7,#6);
#9=DIRECTION('',(0.E0,1.E0,0.E0));
#10=VECTOR('',#9,2.5E-1);
#11=CARTESIAN_POINT('',(2.5E-1,-2.5E-1,0.E0));
#12=LINE('',#11,#10);
#13=DIRECTION('',(-1.E0,0.E0,0.E0));
#14=VECTOR('',#13,2.5E-1);
#15=CARTESIAN_POINT('',(2.5E-1,0.E0,0.E0));
#16=LINE('',#15,#14);
#17=DIRECTION('',(0.E0,0.E0,1.E0));
#18=VECTOR('',#17,1.7E-1);
#19=CARTESIAN_POINT('',(0.E0,0.E0,0.E0));
#20=LINE('',#19,#18);
#21=DIRECTION('',(0.E0,-1.E0,0.E0));
#22=VECTOR('',#21,2.5E-1);
#23=CARTESIAN_POINT('',(0.E0,0.E0,1.7E-1));
#24=LINE('',#23,#22);
#25=DIRECTION('',(0.E0,0.E0,1.E0));
#26=VECTOR('',#25,1.7E-1);
#27=CARTESIAN_POINT('',(2.5E-1,0.E0,0.E0));
#28=LINE('',#27,#26);
#29=DIRECTION('',(-1.E0,0.E0,0.E0));
#30=VECTOR('',#29,2.5E-1);
#31=CARTESIAN_POINT('',(2.5E-1,0.E0,1.7E-1));
#32=LINE('',#31,#30);
#33=CARTESIAN_POINT('',(2.E-1,0.E0,5.E-2));
#34=DIRECTION('',(0.E0,1.E0,0.E0));
#35=DIRECTION('',(-1.E0,0.E0,0.E0));
#36=AXIS2_PLACEMENT_3D('',#33,#34,#35);
#38=CARTESIAN_POINT('',(2.E-1,0.E0,5.E-2));
#39=DIRECTION('',(0.E0,1.E0,0.E0));
#40=DIRECTION('',(1.E0,0.E0,0.E0));
#41=AXIS2_PLACEMENT_3D('',#38,#39,#40);
#43=DIRECTION('',(0.E0,0.E0,1.E0));
#44=VECTOR('',#43,1.7E-1);
#45=CARTESIAN_POINT('',(2.5E-1,-2.5E-1,0.E0));
#46=LINE('',#45,#44);
#47=DIRECTION('',(0.E0,1.E0,0.E0));
#48=VECTOR('',#47,2.5E-1);
#49=CARTESIAN_POINT('',(2.5E-1,-2.5E-1,1.7E-1));
#50=LINE('',#49,#48);
#51=DIRECTION('',(0.E0,0.E0,1.E0));
#52=VECTOR('',#51,1.7E-1);
#53=CARTESIAN_POINT('',(0.E0,-2.5E-1,0.E0));
#54=LINE('',#53,#52);
#55=DIRECTION('',(1.E0,0.E0,0.E0));
#56=VECTOR('',#55,2.5E-1);
#57=CARTESIAN_POINT('',(0.E0,-2.5E-1,1.7E-1));
#58=LINE('',#57,#56);
#59=CARTESIAN_POINT('',(2.5E-2,-2.5E-1,1.3E-1));
#60=DIRECTION('',(0.E0,-1.E0,0.E0));
#61=DIRECTION('',(1.E0,0.E0,0.E0));
#62=AXIS2_PLACEMENT_3D('',#59,#60,#61);
#64=CARTESIAN_POINT('',(2.5E-2,-2.5E-1,1.3E-1));
#65=DIRECTION('',(0.E0,-1.E0,0.E0));
#66=DIRECTION('',(-1.E0,0.E0,0.E0));
#67=AXIS2_PLACEMENT_3D('',#64,#65,#66);
#69=CARTESIAN_POINT('',(1.25E-1,-2.5E-1,3.E-2));
#70=DIRECTION('',(0.E0,-1.E0,0.E0));
#71=DIRECTION('',(1.E0,0.E0,0.E0));
#72=AXIS2_PLACEMENT_3D('',#69,#70,#71);
#74=CARTESIAN_POINT('',(1.25E-1,-2.5E-1,3.E-2));
#75=DIRECTION('',(0.E0,-1.E0,0.E0));
#76=DIRECTION('',(-1.E0,0.E0,0.E0));
#77=AXIS2_PLACEMENT_3D('',#74,#75,#76);
#79=CARTESIAN_POINT('',(2.25E-1,-2.5E-1,1.3E-1));
#80=DIRECTION('',(0.E0,-1.E0,0.E0));
#81=DIRECTION('',(1.E0,0.E0,0.E0));
#82=AXIS2_PLACEMENT_3D('',#79,#80,#81);
#84=CARTESIAN_POINT('',(2.25E-1,-2.5E-1,1.3E-1));
#85=DIRECTION('',(0.E0,-1.E0,0.E0));
#86=DIRECTION('',(-1.E0,0.E0,0.E0));
#87=AXIS2_PLACEMENT_3D('',#84,#85,#86);
#89=DIRECTION('',(0.E0,-1.E0,0.E0));
#90=VECTOR('',#89,1.88E-1);
#91=CARTESIAN_POINT('',(3.3E-2,-2.5E-1,1.3E-1));
#92=LINE('',#91,#90);
#93=DIRECTION('',(0.E0,-1.E0,0.E0));
#94=VECTOR('',#93,1.88E-1);
#95=CARTESIAN_POINT('',(1.7E-2,-2.5E-1,1.3E-1));
#96=LINE('',#95,#94);
#97=CARTESIAN_POINT('',(2.5E-2,-4.38E-1,1.3E-1));
#98=DIRECTION('',(0.E0,1.E0,0.E0));
#99=DIRECTION('',(-1.E0,0.E0,0.E0));
#100=AXIS2_PLACEMENT_3D('',#97,#98,#99);
#102=CARTESIAN_POINT('',(2.5E-2,-4.38E-1,1.3E-1));
#103=DIRECTION('',(0.E0,1.E0,0.E0));
#104=DIRECTION('',(1.E0,0.E0,0.E0));
#105=AXIS2_PLACEMENT_3D('',#102,#103,#104);
#107=DIRECTION('',(0.E0,-1.E0,0.E0));
#108=VECTOR('',#107,1.88E-1);
#109=CARTESIAN_POINT('',(1.33E-1,-2.5E-1,3.E-2));
#110=LINE('',#109,#108);
#111=DIRECTION('',(0.E0,-1.E0,0.E0));
#112=VECTOR('',#111,1.88E-1);
#113=CARTESIAN_POINT('',(1.17E-1,-2.5E-1,3.E-2));
#114=LINE('',#113,#112);
#115=CARTESIAN_POINT('',(1.25E-1,-4.38E-1,3.E-2));
#116=DIRECTION('',(0.E0,1.E0,0.E0));
#117=DIRECTION('',(-1.E0,0.E0,0.E0));
#118=AXIS2_PLACEMENT_3D('',#115,#116,#117);
#120=CARTESIAN_POINT('',(1.25E-1,-4.38E-1,3.E-2));
#121=DIRECTION('',(0.E0,1.E0,0.E0));
#122=DIRECTION('',(1.E0,0.E0,0.E0));
#123=AXIS2_PLACEMENT_3D('',#120,#121,#122);
#125=DIRECTION('',(0.E0,-1.E0,0.E0));
#126=VECTOR('',#125,1.88E-1);
#127=CARTESIAN_POINT('',(2.33E-1,-2.5E-1,1.3E-1));
#128=LINE('',#127,#126);
#129=DIRECTION('',(0.E0,-1.E0,0.E0));
#130=VECTOR('',#129,1.88E-1);
#131=CARTESIAN_POINT('',(2.17E-1,-2.5E-1,1.3E-1));
#132=LINE('',#131,#130);
#133=CARTESIAN_POINT('',(2.25E-1,-4.38E-1,1.3E-1));
#134=DIRECTION('',(0.E0,1.E0,0.E0));
#135=DIRECTION('',(-1.E0,0.E0,0.E0));
#136=AXIS2_PLACEMENT_3D('',#133,#134,#135);
#138=CARTESIAN_POINT('',(2.25E-1,-4.38E-1,1.3E-1));
#139=DIRECTION('',(0.E0,1.E0,0.E0));
#140=DIRECTION('',(1.E0,0.E0,0.E0));
#141=AXIS2_PLACEMENT_3D('',#138,#139,#140);
#143=DIRECTION('',(0.E0,1.E0,0.E0));
#144=VECTOR('',#143,2.E-2);
#145=CARTESIAN_POINT('',(2.1E-1,1.5E-2,8.354101966250E-2));
#146=LINE('',#145,#144);
#147=DIRECTION('',(0.E0,1.E0,0.E0));
#148=VECTOR('',#147,3.5E-2);
#149=CARTESIAN_POINT('',(1.65E-1,0.E0,5.E-2));
#150=LINE('',#149,#148);
#151=DIRECTION('',(0.E0,1.E0,0.E0));
#152=VECTOR('',#151,2.E-2);
#153=CARTESIAN_POINT('',(1.9E-1,1.5E-2,8.354101966250E-2));
#154=LINE('',#153,#152);
#155=CARTESIAN_POINT('',(2.E-1,1.5E-2,5.E-2));
#156=DIRECTION('',(0.E0,1.E0,0.E0));
#157=DIRECTION('',(-2.857142857143E-1,0.E0,9.583148474999E-1));
#158=AXIS2_PLACEMENT_3D('',#155,#156,#157);
#160=DIRECTION('',(0.E0,0.E0,1.E0));
#161=VECTOR('',#160,6.708203932499E-2);
#162=CARTESIAN_POINT('',(2.1E-1,3.5E-2,1.645898033750E-2));
#163=LINE('',#162,#161);
#164=CARTESIAN_POINT('',(2.E-1,3.5E-2,5.E-2));
#165=DIRECTION('',(0.E0,1.E0,0.E0));
#166=DIRECTION('',(1.E0,0.E0,0.E0));
#167=AXIS2_PLACEMENT_3D('',#164,#165,#166);
#169=CARTESIAN_POINT('',(2.E-1,3.5E-2,5.E-2));
#170=DIRECTION('',(0.E0,1.E0,0.E0));
#171=DIRECTION('',(2.857142857143E-1,0.E0,9.583148474999E-1));
#172=AXIS2_PLACEMENT_3D('',#169,#170,#171);
#174=DIRECTION('',(0.E0,0.E0,1.E0));
#175=VECTOR('',#174,6.708203932499E-2);
#176=CARTESIAN_POINT('',(1.9E-1,3.5E-2,1.645898033750E-2));
#177=LINE('',#176,#175);
#178=CARTESIAN_POINT('',(2.E-1,3.5E-2,5.E-2));
#179=DIRECTION('',(0.E0,1.E0,0.E0));
#180=DIRECTION('',(-1.E0,0.E0,0.E0));
#181=AXIS2_PLACEMENT_3D('',#178,#179,#180);
#183=CARTESIAN_POINT('',(2.E-1,3.5E-2,5.E-2));
#184=DIRECTION('',(0.E0,1.E0,0.E0));
#185=DIRECTION('',(-2.857142857143E-1,0.E0,-9.583148474999E-1));
#186=AXIS2_PLACEMENT_3D('',#183,#184,#185);
#188=DIRECTION('',(0.E0,1.E0,0.E0));
#189=VECTOR('',#188,2.E-2);
#190=CARTESIAN_POINT('',(2.1E-1,1.5E-2,1.645898033750E-2));
#191=LINE('',#190,#189);
#192=CARTESIAN_POINT('',(2.E-1,1.5E-2,5.E-2));
#193=DIRECTION('',(0.E0,1.E0,0.E0));
#194=DIRECTION('',(2.857142857143E-1,0.E0,-9.583148474999E-1));
#195=AXIS2_PLACEMENT_3D('',#192,#193,#194);
#197=DIRECTION('',(0.E0,1.E0,0.E0));
#198=VECTOR('',#197,2.E-2);
#199=CARTESIAN_POINT('',(1.9E-1,1.5E-2,1.645898033750E-2));
#200=LINE('',#199,#198);
#201=DIRECTION('',(0.E0,1.E0,0.E0));
#202=VECTOR('',#201,3.5E-2);
#203=CARTESIAN_POINT('',(2.35E-1,0.E0,5.E-2));
#204=LINE('',#203,#202);
#205=DIRECTION('',(0.E0,0.E0,1.E0));
#206=VECTOR('',#205,6.708203932499E-2);
#207=CARTESIAN_POINT('',(2.1E-1,1.5E-2,1.645898033750E-2));
#208=LINE('',#207,#206);
#209=DIRECTION('',(0.E0,0.E0,1.E0));
#210=VECTOR('',#209,6.708203932499E-2);
#211=CARTESIAN_POINT('',(1.9E-1,1.5E-2,1.645898033750E-2));
#212=LINE('',#211,#210);
#213=CARTESIAN_POINT('',(0.E0,0.E0,0.E0));
#214=CARTESIAN_POINT('',(0.E0,-2.5E-1,0.E0));
#215=VERTEX_POINT('',#213);
#216=VERTEX_POINT('',#214);
#217=CARTESIAN_POINT('',(2.5E-1,-2.5E-1,0.E0));
#218=VERTEX_POINT('',#217);
#219=CARTESIAN_POINT('',(2.5E-1,0.E0,0.E0));
#220=VERTEX_POINT('',#219);
#221=CARTESIAN_POINT('',(0.E0,0.E0,1.7E-1));
#222=VERTEX_POINT('',#221);
#223=CARTESIAN_POINT('',(0.E0,-2.5E-1,1.7E-1));
#224=VERTEX_POINT('',#223);
#225=CARTESIAN_POINT('',(2.5E-1,0.E0,1.7E-1));
#226=VERTEX_POINT('',#225);
#227=CARTESIAN_POINT('',(2.5E-1,-2.5E-1,1.7E-1));
#228=VERTEX_POINT('',#227);
#229=CARTESIAN_POINT('',(3.3E-2,-2.5E-1,1.3E-1));
#230=CARTESIAN_POINT('',(1.7E-2,-2.5E-1,1.3E-1));
#231=VERTEX_POINT('',#229);
#232=VERTEX_POINT('',#230);
#233=CARTESIAN_POINT('',(1.33E-1,-2.5E-1,3.E-2));
#234=CARTESIAN_POINT('',(1.17E-1,-2.5E-1,3.E-2));
#235=VERTEX_POINT('',#233);
#236=VERTEX_POINT('',#234);
#237=CARTESIAN_POINT('',(2.33E-1,-2.5E-1,1.3E-1));
#238=CARTESIAN_POINT('',(2.17E-1,-2.5E-1,1.3E-1));
#239=VERTEX_POINT('',#237);
#240=VERTEX_POINT('',#238);
#241=CARTESIAN_POINT('',(3.3E-2,-4.38E-1,1.3E-1));
#242=VERTEX_POINT('',#241);
#243=CARTESIAN_POINT('',(1.7E-2,-4.38E-1,1.3E-1));
#244=VERTEX_POINT('',#243);
#245=CARTESIAN_POINT('',(1.33E-1,-4.38E-1,3.E-2));
#246=VERTEX_POINT('',#245);
#247=CARTESIAN_POINT('',(1.17E-1,-4.38E-1,3.E-2));
#248=VERTEX_POINT('',#247);
#249=CARTESIAN_POINT('',(2.33E-1,-4.38E-1,1.3E-1));
#250=VERTEX_POINT('',#249);
#251=CARTESIAN_POINT('',(2.17E-1,-4.38E-1,1.3E-1));
#252=VERTEX_POINT('',#251);
#253=CARTESIAN_POINT('',(1.65E-1,0.E0,5.E-2));
#254=CARTESIAN_POINT('',(2.35E-1,0.E0,5.E-2));
#255=VERTEX_POINT('',#253);
#256=VERTEX_POINT('',#254);
#257=CARTESIAN_POINT('',(1.65E-1,3.5E-2,5.E-2));
#258=VERTEX_POINT('',#257);
#259=CARTESIAN_POINT('',(2.35E-1,3.5E-2,5.E-2));
#260=VERTEX_POINT('',#259);
#261=CARTESIAN_POINT('',(2.1E-1,3.5E-2,1.645898033750E-2));
#262=CARTESIAN_POINT('',(2.1E-1,3.5E-2,8.354101966250E-2));
#263=VERTEX_POINT('',#261);
#264=VERTEX_POINT('',#262);
#265=CARTESIAN_POINT('',(1.9E-1,3.5E-2,1.645898033750E-2));
#266=CARTESIAN_POINT('',(1.9E-1,3.5E-2,8.354101966250E-2));
#267=VERTEX_POINT('',#265);
#268=VERTEX_POINT('',#266);
#269=CARTESIAN_POINT('',(2.1E-1,1.5E-2,8.354101966250E-2));
#270=VERTEX_POINT('',#269);
#271=CARTESIAN_POINT('',(1.9E-1,1.5E-2,8.354101966250E-2));
#272=VERTEX_POINT('',#271);
#273=CARTESIAN_POINT('',(2.1E-1,1.5E-2,1.645898033750E-2));
#274=VERTEX_POINT('',#273);
#275=CARTESIAN_POINT('',(1.9E-1,1.5E-2,1.645898033750E-2));
#276=VERTEX_POINT('',#275);
#277=CARTESIAN_POINT('',(0.E0,0.E0,0.E0));
#278=DIRECTION('',(0.E0,0.E0,1.E0));
#279=DIRECTION('',(1.E0,0.E0,0.E0));
#280=AXIS2_PLACEMENT_3D('',#277,#278,#279);
#281=PLANE('',#280);
#283=ORIENTED_EDGE('',*,*,#282,.T.);
#285=ORIENTED_EDGE('',*,*,#284,.T.);
#287=ORIENTED_EDGE('',*,*,#286,.T.);
#289=ORIENTED_EDGE('',*,*,#288,.T.);
#290=EDGE_LOOP('',(#283,#285,#287,#289));
#291=FACE_OUTER_BOUND('',#290,.F.);
#292=ADVANCED_FACE('',(#291),#281,.F.);
#293=CARTESIAN_POINT('',(0.E0,0.E0,0.E0));
#294=DIRECTION('',(-1.E0,0.E0,0.E0));
#295=DIRECTION('',(0.E0,-1.E0,0.E0));
#296=AXIS2_PLACEMENT_3D('',#293,#294,#295);
#297=PLANE('',#296);
#298=ORIENTED_EDGE('',*,*,#282,.F.);
#300=ORIENTED_EDGE('',*,*,#299,.T.);
#302=ORIENTED_EDGE('',*,*,#301,.T.);
#304=ORIENTED_EDGE('',*,*,#303,.F.);
#305=EDGE_LOOP('',(#298,#300,#302,#304));
#306=FACE_OUTER_BOUND('',#305,.F.);
#307=ADVANCED_FACE('',(#306),#297,.T.);
#308=CARTESIAN_POINT('',(2.5E-1,0.E0,0.E0));
#309=DIRECTION('',(0.E0,1.E0,0.E0));
#310=DIRECTION('',(-1.E0,0.E0,0.E0));
#311=AXIS2_PLACEMENT_3D('',#308,#309,#310);
#312=PLANE('',#311);
#313=ORIENTED_EDGE('',*,*,#288,.F.);
#315=ORIENTED_EDGE('',*,*,#314,.T.);
#317=ORIENTED_EDGE('',*,*,#316,.T.);
#318=ORIENTED_EDGE('',*,*,#299,.F.);
#319=EDGE_LOOP('',(#313,#315,#317,#318));
#320=FACE_OUTER_BOUND('',#319,.F.);
#322=ORIENTED_EDGE('',*,*,#321,.T.);
#324=ORIENTED_EDGE('',*,*,#323,.T.);
#325=EDGE_LOOP('',(#322,#324));
#326=FACE_BOUND('',#325,.F.);
#327=ADVANCED_FACE('',(#320,#326),#312,.T.);
#328=CARTESIAN_POINT('',(2.5E-1,-2.5E-1,0.E0));
#329=DIRECTION('',(1.E0,0.E0,0.E0));
#330=DIRECTION('',(0.E0,1.E0,0.E0));
#331=AXIS2_PLACEMENT_3D('',#328,#329,#330);
#332=PLANE('',#331);
#333=ORIENTED_EDGE('',*,*,#286,.F.);
#335=ORIENTED_EDGE('',*,*,#334,.T.);
#337=ORIENTED_EDGE('',*,*,#336,.T.);
#338=ORIENTED_EDGE('',*,*,#314,.F.);
#339=EDGE_LOOP('',(#333,#335,#337,#338));
#340=FACE_OUTER_BOUND('',#339,.F.);
#341=ADVANCED_FACE('',(#340),#332,.T.);
#342=CARTESIAN_POINT('',(0.E0,-2.5E-1,0.E0));
#343=DIRECTION('',(0.E0,-1.E0,0.E0));
#344=DIRECTION('',(1.E0,0.E0,0.E0));
#345=AXIS2_PLACEMENT_3D('',#342,#343,#344);
#346=PLANE('',#345);
#347=ORIENTED_EDGE('',*,*,#284,.F.);
#348=ORIENTED_EDGE('',*,*,#303,.T.);
#350=ORIENTED_EDGE('',*,*,#349,.T.);
#351=ORIENTED_EDGE('',*,*,#334,.F.);
#352=EDGE_LOOP('',(#347,#348,#350,#351));
#353=FACE_OUTER_BOUND('',#352,.F.);
#355=ORIENTED_EDGE('',*,*,#354,.T.);
#357=ORIENTED_EDGE('',*,*,#356,.T.);
#358=EDGE_LOOP('',(#355,#357));
#359=FACE_BOUND('',#358,.F.);
#361=ORIENTED_EDGE('',*,*,#360,.T.);
#363=ORIENTED_EDGE('',*,*,#362,.T.);
#364=EDGE_LOOP('',(#361,#363));
#365=FACE_BOUND('',#364,.F.);
#367=ORIENTED_EDGE('',*,*,#366,.T.);
#369=ORIENTED_EDGE('',*,*,#368,.T.);
#370=EDGE_LOOP('',(#367,#369));
#371=FACE_BOUND('',#370,.F.);
#372=ADVANCED_FACE('',(#353,#359,#365,#371),#346,.T.);
#373=CARTESIAN_POINT('',(0.E0,0.E0,1.7E-1));
#374=DIRECTION('',(0.E0,0.E0,1.E0));
#375=DIRECTION('',(1.E0,0.E0,0.E0));
#376=AXIS2_PLACEMENT_3D('',#373,#374,#375);
#377=PLANE('',#376);
#378=ORIENTED_EDGE('',*,*,#301,.F.);
#379=ORIENTED_EDGE('',*,*,#316,.F.);
#380=ORIENTED_EDGE('',*,*,#336,.F.);
#381=ORIENTED_EDGE('',*,*,#349,.F.);
#382=EDGE_LOOP('',(#378,#379,#380,#381));
#383=FACE_OUTER_BOUND('',#382,.F.);
#384=ADVANCED_FACE('',(#383),#377,.T.);
#385=CARTESIAN_POINT('',(2.5E-2,-2.5E-1,1.3E-1));
#386=DIRECTION('',(0.E0,-1.E0,0.E0));
#387=DIRECTION('',(1.E0,0.E0,0.E0));
#388=AXIS2_PLACEMENT_3D('',#385,#386,#387);
#389=CYLINDRICAL_SURFACE('',#388,8.E-3);
#390=ORIENTED_EDGE('',*,*,#354,.F.);
#392=ORIENTED_EDGE('',*,*,#391,.T.);
#394=ORIENTED_EDGE('',*,*,#393,.F.);
#396=ORIENTED_EDGE('',*,*,#395,.F.);
#397=EDGE_LOOP('',(#390,#392,#394,#396));
#398=FACE_OUTER_BOUND('',#397,.F.);
#399=ADVANCED_FACE('',(#398),#389,.T.);
#400=CARTESIAN_POINT('',(2.5E-2,-2.5E-1,1.3E-1));
#401=DIRECTION('',(0.E0,-1.E0,0.E0));
#402=DIRECTION('',(1.E0,0.E0,0.E0));
#403=AXIS2_PLACEMENT_3D('',#400,#401,#402);
#404=CYLINDRICAL_SURFACE('',#403,8.E-3);
#405=ORIENTED_EDGE('',*,*,#356,.F.);
#406=ORIENTED_EDGE('',*,*,#395,.T.);
#408=ORIENTED_EDGE('',*,*,#407,.F.);
#409=ORIENTED_EDGE('',*,*,#391,.F.);
#410=EDGE_LOOP('',(#405,#406,#408,#409));
#411=FACE_OUTER_BOUND('',#410,.F.);
#412=ADVANCED_FACE('',(#411),#404,.T.);
#413=CARTESIAN_POINT('',(0.E0,-4.38E-1,0.E0));
#414=DIRECTION('',(0.E0,-1.E0,0.E0));
#415=DIRECTION('',(1.E0,0.E0,0.E0));
#416=AXIS2_PLACEMENT_3D('',#413,#414,#415);
#417=PLANE('',#416);
#418=ORIENTED_EDGE('',*,*,#393,.T.);
#419=ORIENTED_EDGE('',*,*,#407,.T.);
#420=EDGE_LOOP('',(#418,#419));
#421=FACE_OUTER_BOUND('',#420,.F.);
#422=ADVANCED_FACE('',(#421),#417,.T.);
#423=CARTESIAN_POINT('',(1.25E-1,-2.5E-1,3.E-2));
#424=DIRECTION('',(0.E0,-1.E0,0.E0));
#425=DIRECTION('',(1.E0,0.E0,0.E0));
#426=AXIS2_PLACEMENT_3D('',#423,#424,#425);
#427=CYLINDRICAL_SURFACE('',#426,8.E-3);
#428=ORIENTED_EDGE('',*,*,#360,.F.);
#430=ORIENTED_EDGE('',*,*,#429,.T.);
#432=ORIENTED_EDGE('',*,*,#431,.F.);
#434=ORIENTED_EDGE('',*,*,#433,.F.);
#435=EDGE_LOOP('',(#428,#430,#432,#434));
#436=FACE_OUTER_BOUND('',#435,.F.);
#437=ADVANCED_FACE('',(#436),#427,.T.);
#438=CARTESIAN_POINT('',(1.25E-1,-2.5E-1,3.E-2));
#439=DIRECTION('',(0.E0,-1.E0,0.E0));
#440=DIRECTION('',(1.E0,0.E0,0.E0));
#441=AXIS2_PLACEMENT_3D('',#438,#439,#440);
#442=CYLINDRICAL_SURFACE('',#441,8.E-3);
#443=ORIENTED_EDGE('',*,*,#362,.F.);
#444=ORIENTED_EDGE('',*,*,#433,.T.);
#446=ORIENTED_EDGE('',*,*,#445,.F.);
#447=ORIENTED_EDGE('',*,*,#429,.F.);
#448=EDGE_LOOP('',(#443,#444,#446,#447));
#449=FACE_OUTER_BOUND('',#448,.F.);
#450=ADVANCED_FACE('',(#449),#442,.T.);
#451=CARTESIAN_POINT('',(0.E0,-4.38E-1,0.E0));
#452=DIRECTION('',(0.E0,-1.E0,0.E0));
#453=DIRECTION('',(1.E0,0.E0,0.E0));
#454=AXIS2_PLACEMENT_3D('',#451,#452,#453);
#455=PLANE('',#454);
#456=ORIENTED_EDGE('',*,*,#431,.T.);
#457=ORIENTED_EDGE('',*,*,#445,.T.);
#458=EDGE_LOOP('',(#456,#457));
#459=FACE_OUTER_BOUND('',#458,.F.);
#460=ADVANCED_FACE('',(#459),#455,.T.);
#461=CARTESIAN_POINT('',(2.25E-1,-2.5E-1,1.3E-1));
#462=DIRECTION('',(0.E0,-1.E0,0.E0));
#463=DIRECTION('',(1.E0,0.E0,0.E0));
#464=AXIS2_PLACEMENT_3D('',#461,#462,#463);
#465=CYLINDRICAL_SURFACE('',#464,8.E-3);
#466=ORIENTED_EDGE('',*,*,#366,.F.);
#468=ORIENTED_EDGE('',*,*,#467,.T.);
#470=ORIENTED_EDGE('',*,*,#469,.F.);
#472=ORIENTED_EDGE('',*,*,#471,.F.);
#473=EDGE_LOOP('',(#466,#468,#470,#472));
#474=FACE_OUTER_BOUND('',#473,.F.);
#475=ADVANCED_FACE('',(#474),#465,.T.);
#476=CARTESIAN_POINT('',(2.25E-1,-2.5E-1,1.3E-1));
#477=DIRECTION('',(0.E0,-1.E0,0.E0));
#478=DIRECTION('',(1.E0,0.E0,0.E0));
#479=AXIS2_PLACEMENT_3D('',#476,#477,#478);
#480=CYLINDRICAL_SURFACE('',#479,8.E-3);
#481=ORIENTED_EDGE('',*,*,#368,.F.);
#482=ORIENTED_EDGE('',*,*,#471,.T.);
#484=ORIENTED_EDGE('',*,*,#483,.F.);
#485=ORIENTED_EDGE('',*,*,#467,.F.);
#486=EDGE_LOOP('',(#481,#482,#484,#485));
#487=FACE_OUTER_BOUND('',#486,.F.);
#488=ADVANCED_FACE('',(#487),#480,.T.);
#489=CARTESIAN_POINT('',(0.E0,-4.38E-1,0.E0));
#490=DIRECTION('',(0.E0,-1.E0,0.E0));
#491=DIRECTION('',(1.E0,0.E0,0.E0));
#492=AXIS2_PLACEMENT_3D('',#489,#490,#491);
#493=PLANE('',#492);
#494=ORIENTED_EDGE('',*,*,#469,.T.);
#495=ORIENTED_EDGE('',*,*,#483,.T.);
#496=EDGE_LOOP('',(#494,#495));
#497=FACE_OUTER_BOUND('',#496,.F.);
#498=ADVANCED_FACE('',(#497),#493,.T.);
#499=CARTESIAN_POINT('',(2.E-1,0.E0,5.E-2));
#500=DIRECTION('',(0.E0,1.E0,0.E0));
#501=DIRECTION('',(-1.E0,0.E0,0.E0));
#502=AXIS2_PLACEMENT_3D('',#499,#500,#501);
#503=CYLINDRICAL_SURFACE('',#502,3.5E-2);
#505=ORIENTED_EDGE('',*,*,#504,.T.);
#507=ORIENTED_EDGE('',*,*,#506,.T.);
#509=ORIENTED_EDGE('',*,*,#508,.F.);
#510=ORIENTED_EDGE('',*,*,#321,.F.);
#512=ORIENTED_EDGE('',*,*,#511,.T.);
#514=ORIENTED_EDGE('',*,*,#513,.T.);
#516=ORIENTED_EDGE('',*,*,#515,.F.);
#518=ORIENTED_EDGE('',*,*,#517,.T.);
#519=EDGE_LOOP('',(#505,#507,#509,#510,#512,#514,#516,#518));
#520=FACE_OUTER_BOUND('',#519,.F.);
#521=ADVANCED_FACE('',(#520),#503,.T.);
#522=CARTESIAN_POINT('',(2.1E-1,3.5E-2,0.E0));
#523=DIRECTION('',(1.E0,0.E0,0.E0));
#524=DIRECTION('',(0.E0,-1.E0,0.E0));
#525=AXIS2_PLACEMENT_3D('',#522,#523,#524);
#526=PLANE('',#525);
#528=ORIENTED_EDGE('',*,*,#527,.T.);
#529=ORIENTED_EDGE('',*,*,#504,.F.);
#531=ORIENTED_EDGE('',*,*,#530,.F.);
#533=ORIENTED_EDGE('',*,*,#532,.T.);
#534=EDGE_LOOP('',(#528,#529,#531,#533));
#535=FACE_OUTER_BOUND('',#534,.F.);
#536=ADVANCED_FACE('',(#535),#526,.F.);
#537=CARTESIAN_POINT('',(0.E0,3.5E-2,0.E0));
#538=DIRECTION('',(0.E0,1.E0,0.E0));
#539=DIRECTION('',(-1.E0,0.E0,0.E0));
#540=AXIS2_PLACEMENT_3D('',#537,#538,#539);
#541=PLANE('',#540);
#542=ORIENTED_EDGE('',*,*,#527,.F.);
#544=ORIENTED_EDGE('',*,*,#543,.F.);
#545=ORIENTED_EDGE('',*,*,#506,.F.);
#546=EDGE_LOOP('',(#542,#544,#545));
#547=FACE_OUTER_BOUND('',#546,.F.);
#548=ADVANCED_FACE('',(#547),#541,.T.);
#549=CARTESIAN_POINT('',(0.E0,3.5E-2,0.E0));
#550=DIRECTION('',(0.E0,1.E0,0.E0));
#551=DIRECTION('',(-1.E0,0.E0,0.E0));
#552=AXIS2_PLACEMENT_3D('',#549,#550,#551);
#553=PLANE('',#552);
#555=ORIENTED_EDGE('',*,*,#554,.T.);
#556=ORIENTED_EDGE('',*,*,#513,.F.);
#558=ORIENTED_EDGE('',*,*,#557,.F.);
#559=EDGE_LOOP('',(#555,#556,#558));
#560=FACE_OUTER_BOUND('',#559,.F.);
#561=ADVANCED_FACE('',(#560),#553,.T.);
#562=CARTESIAN_POINT('',(2.E-1,0.E0,5.E-2));
#563=DIRECTION('',(0.E0,1.E0,0.E0));
#564=DIRECTION('',(-1.E0,0.E0,0.E0));
#565=AXIS2_PLACEMENT_3D('',#562,#563,#564);
#566=CYLINDRICAL_SURFACE('',#565,3.5E-2);
#567=ORIENTED_EDGE('',*,*,#532,.F.);
#569=ORIENTED_EDGE('',*,*,#568,.T.);
#571=ORIENTED_EDGE('',*,*,#570,.T.);
#572=ORIENTED_EDGE('',*,*,#557,.T.);
#573=ORIENTED_EDGE('',*,*,#511,.F.);
#574=ORIENTED_EDGE('',*,*,#323,.F.);
#575=ORIENTED_EDGE('',*,*,#508,.T.);
#576=ORIENTED_EDGE('',*,*,#543,.T.);
#577=EDGE_LOOP('',(#567,#569,#571,#572,#573,#574,#575,#576));
#578=FACE_OUTER_BOUND('',#577,.F.);
#579=ADVANCED_FACE('',(#578),#566,.T.);
#580=CARTESIAN_POINT('',(2.1E-1,1.5E-2,0.E0));
#581=DIRECTION('',(0.E0,-1.E0,0.E0));
#582=DIRECTION('',(-1.E0,0.E0,0.E0));
#583=AXIS2_PLACEMENT_3D('',#580,#581,#582);
#584=PLANE('',#583);
#585=ORIENTED_EDGE('',*,*,#517,.F.);
#587=ORIENTED_EDGE('',*,*,#586,.F.);
#588=ORIENTED_EDGE('',*,*,#568,.F.);
#589=ORIENTED_EDGE('',*,*,#530,.T.);
#590=EDGE_LOOP('',(#585,#587,#588,#589));
#591=FACE_OUTER_BOUND('',#590,.F.);
#592=ADVANCED_FACE('',(#591),#584,.F.);
#593=CARTESIAN_POINT('',(1.9E-1,1.5E-2,0.E0));
#594=DIRECTION('',(-1.E0,0.E0,0.E0));
#595=DIRECTION('',(0.E0,1.E0,0.E0));
#596=AXIS2_PLACEMENT_3D('',#593,#594,#595);
#597=PLANE('',#596);
#598=ORIENTED_EDGE('',*,*,#554,.F.);
#599=ORIENTED_EDGE('',*,*,#570,.F.);
#600=ORIENTED_EDGE('',*,*,#586,.T.);
#601=ORIENTED_EDGE('',*,*,#515,.T.);
#602=EDGE_LOOP('',(#598,#599,#600,#601));
#603=FACE_OUTER_BOUND('',#602,.F.);
#604=ADVANCED_FACE('',(#603),#597,.F.);
#605=CLOSED_SHELL('',(#292,#307,#327,#341,#372,#384,#399,#412,#422,#437,#450,
#460,#475,#488,#498,#521,#536,#548,#561,#579,#592,#604));
#606=MANIFOLD_SOLID_BREP('',#605);
#607=DIMENSIONAL_EXPONENTS(1.E0,0.E0,0.E0,0.E0,0.E0,0.E0,0.E0);
#609=LENGTH_MEASURE_WITH_UNIT(LENGTH_MEASURE(2.54E1),#608);
#610=(CONVERSION_BASED_UNIT('INCH',#609)LENGTH_UNIT()NAMED_UNIT(#607));
#611=DIMENSIONAL_EXPONENTS(0.E0,0.E0,0.E0,0.E0,0.E0,0.E0,0.E0);
#613=PLANE_ANGLE_MEASURE_WITH_UNIT(PLANE_ANGLE_MEASURE(1.745329251994E-2),#612);
#614=(CONVERSION_BASED_UNIT('DEGREE',#613)NAMED_UNIT(*)PLANE_ANGLE_UNIT());
#616=UNCERTAINTY_MEASURE_WITH_UNIT(LENGTH_MEASURE(5.613410640459E-5),#610,
'closure',
'Maximum model space distance between geometric entities at asserted connectivities');
#617=(GEOMETRIC_REPRESENTATION_CONTEXT(3)GLOBAL_UNCERTAINTY_ASSIGNED_CONTEXT((
#616))GLOBAL_UNIT_ASSIGNED_CONTEXT((#610,#614,#615))REPRESENTATION_CONTEXT
('ID1','3'));
#619=APPLICATION_CONTEXT(
'CONFIGURATION CONTROLLED 3D DESIGNS OF MECHANICAL PARTS AND ASSEMBLIES');
#620=APPLICATION_PROTOCOL_DEFINITION('international standard',
'config_control_design',1994,#619);
#621=DESIGN_CONTEXT('',#619,'design');
#622=MECHANICAL_CONTEXT('',#619,'mechanical');
#623=PRODUCT('3260W','3260W','NOT SPECIFIED',(#622));
#624=PRODUCT_DEFINITION_FORMATION_WITH_SPECIFIED_SOURCE('1','LAST_VERSION',#623,
.MADE.);
#628=PRODUCT_CATEGORY('part','');
#629=PRODUCT_RELATED_PRODUCT_CATEGORY('detail','',(#623));
#630=PRODUCT_CATEGORY_RELATIONSHIP('','',#628,#629);
#631=SECURITY_CLASSIFICATION_LEVEL('unclassified');
#632=SECURITY_CLASSIFICATION('','',#631);
#633=CC_DESIGN_SECURITY_CLASSIFICATION(#632,(#624));
#634=APPROVAL_STATUS('approved');
#635=APPROVAL(#634,'');
#636=CC_DESIGN_APPROVAL(#635,(#632,#624,#625));
#637=CALENDAR_DATE(113,2,8);
#638=COORDINATED_UNIVERSAL_TIME_OFFSET(7,0,.BEHIND.);
#639=LOCAL_TIME(8,58,5.1E1,#638);
#640=DATE_AND_TIME(#637,#639);
#641=APPROVAL_DATE_TIME(#640,#635);
#642=DATE_TIME_ROLE('creation_date');
#643=CC_DESIGN_DATE_AND_TIME_ASSIGNMENT(#640,#642,(#625));
#644=DATE_TIME_ROLE('classification_date');
#645=CC_DESIGN_DATE_AND_TIME_ASSIGNMENT(#640,#644,(#632));
#646=PERSON('UNSPECIFIED','UNSPECIFIED',$,$,$,$);
#647=ORGANIZATION('UNSPECIFIED','UNSPECIFIED','UNSPECIFIED');
#648=PERSON_AND_ORGANIZATION(#646,#647);
#649=APPROVAL_ROLE('approver');
#650=APPROVAL_PERSON_ORGANIZATION(#648,#635,#649);
#651=PERSON_AND_ORGANIZATION_ROLE('creator');
#652=CC_DESIGN_PERSON_AND_ORGANIZATION_ASSIGNMENT(#648,#651,(#624,#625));
#653=PERSON_AND_ORGANIZATION_ROLE('design_supplier');
#654=CC_DESIGN_PERSON_AND_ORGANIZATION_ASSIGNMENT(#648,#653,(#624));
#655=PERSON_AND_ORGANIZATION_ROLE('classification_officer');
#656=CC_DESIGN_PERSON_AND_ORGANIZATION_ASSIGNMENT(#648,#655,(#632));
#657=PERSON_AND_ORGANIZATION_ROLE('design_owner');
#658=CC_DESIGN_PERSON_AND_ORGANIZATION_ASSIGNMENT(#648,#657,(#623));
#37=CIRCLE('',#36,3.5E-2);
#42=CIRCLE('',#41,3.5E-2);
#63=CIRCLE('',#62,8.E-3);
#68=CIRCLE('',#67,8.E-3);
#73=CIRCLE('',#72,8.E-3);
#78=CIRCLE('',#77,8.E-3);
#83=CIRCLE('',#82,8.E-3);
#88=CIRCLE('',#87,8.E-3);
#101=CIRCLE('',#100,8.E-3);
#106=CIRCLE('',#105,8.E-3);
#119=CIRCLE('',#118,8.E-3);
#124=CIRCLE('',#123,8.E-3);
#137=CIRCLE('',#136,8.E-3);
#142=CIRCLE('',#141,8.E-3);
#159=CIRCLE('',#158,3.5E-2);
#168=CIRCLE('',#167,3.5E-2);
#173=CIRCLE('',#172,3.5E-2);
#182=CIRCLE('',#181,3.5E-2);
#187=CIRCLE('',#186,3.5E-2);
#196=CIRCLE('',#195,3.5E-2);
#282=EDGE_CURVE('',#215,#216,#4,.T.);
#284=EDGE_CURVE('',#216,#218,#8,.T.);
#286=EDGE_CURVE('',#218,#220,#12,.T.);
#288=EDGE_CURVE('',#220,#215,#16,.T.);
#299=EDGE_CURVE('',#215,#222,#20,.T.);
#301=EDGE_CURVE('',#222,#224,#24,.T.);
#303=EDGE_CURVE('',#216,#224,#54,.T.);
#314=EDGE_CURVE('',#220,#226,#28,.T.);
#316=EDGE_CURVE('',#226,#222,#32,.T.);
#321=EDGE_CURVE('',#255,#256,#37,.T.);
#323=EDGE_CURVE('',#256,#255,#42,.T.);
#334=EDGE_CURVE('',#218,#228,#46,.T.);
#336=EDGE_CURVE('',#228,#226,#50,.T.);
#349=EDGE_CURVE('',#224,#228,#58,.T.);
#354=EDGE_CURVE('',#231,#232,#63,.T.);
#356=EDGE_CURVE('',#232,#231,#68,.T.);
#360=EDGE_CURVE('',#235,#236,#73,.T.);
#362=EDGE_CURVE('',#236,#235,#78,.T.);
#366=EDGE_CURVE('',#239,#240,#83,.T.);
#368=EDGE_CURVE('',#240,#239,#88,.T.);
#391=EDGE_CURVE('',#231,#242,#92,.T.);
#393=EDGE_CURVE('',#244,#242,#101,.T.);
#395=EDGE_CURVE('',#232,#244,#96,.T.);
#407=EDGE_CURVE('',#242,#244,#106,.T.);
#429=EDGE_CURVE('',#235,#246,#110,.T.);
#431=EDGE_CURVE('',#248,#246,#119,.T.);
#433=EDGE_CURVE('',#236,#248,#114,.T.);
#445=EDGE_CURVE('',#246,#248,#124,.T.);
#467=EDGE_CURVE('',#239,#250,#128,.T.);
#469=EDGE_CURVE('',#252,#250,#137,.T.);
#471=EDGE_CURVE('',#240,#252,#132,.T.);
#483=EDGE_CURVE('',#250,#252,#142,.T.);
#504=EDGE_CURVE('',#270,#264,#146,.T.);
#506=EDGE_CURVE('',#264,#260,#173,.T.);
#508=EDGE_CURVE('',#256,#260,#204,.T.);
#511=EDGE_CURVE('',#255,#258,#150,.T.);
#513=EDGE_CURVE('',#258,#268,#182,.T.);
#515=EDGE_CURVE('',#272,#268,#154,.T.);
#517=EDGE_CURVE('',#272,#270,#159,.T.);
#527=EDGE_CURVE('',#263,#264,#163,.T.);
#530=EDGE_CURVE('',#274,#270,#208,.T.);
#532=EDGE_CURVE('',#274,#263,#191,.T.);
#543=EDGE_CURVE('',#260,#263,#168,.T.);
#554=EDGE_CURVE('',#267,#268,#177,.T.);
#557=EDGE_CURVE('',#267,#258,#187,.T.);
#568=EDGE_CURVE('',#274,#276,#196,.T.);
#570=EDGE_CURVE('',#276,#267,#200,.T.);
#586=EDGE_CURVE('',#276,#272,#212,.T.);
#608=(LENGTH_UNIT()NAMED_UNIT(*)SI_UNIT(.MILLI.,.METRE.));
#612=(NAMED_UNIT(*)PLANE_ANGLE_UNIT()SI_UNIT($,.RADIAN.));
#615=(NAMED_UNIT(*)SI_UNIT($,.STERADIAN.)SOLID_ANGLE_UNIT());
#618=ADVANCED_BREP_SHAPE_REPRESENTATION('',(#606),#617);
#625=PRODUCT_DEFINITION('design','',#624,#621);
#626=PRODUCT_DEFINITION_SHAPE('','SHAPE FOR 3260W.',#625);
#627=SHAPE_DEFINITION_REPRESENTATION(#626,#618);
ENDSEC;
END-ISO-10303-21;
