ISO-10303-21;
HEADER;
FILE_DESCRIPTION((''),'2;1');
FILE_NAME('2049-XX-B','2012-07-31T',('ryans'),('Bourns, Inc.'),
'PRO/ENGINEER BY PARAMETRIC TECHNOLOGY CORPORATION, 2010100',
'PRO/ENGINEER BY PARAMETRIC TECHNOLOGY CORPORATION, 2010100','');
FILE_SCHEMA(('CONFIG_CONTROL_DESIGN'));
ENDSEC;
DATA;
#1=CARTESIAN_POINT('',(0.E0,0.E0,-3.E0));
#2=DIRECTION('',(0.E0,0.E0,1.E0));
#3=DIRECTION('',(1.E0,0.E0,0.E0));
#4=AXIS2_PLACEMENT_3D('',#1,#2,#3);
#6=CARTESIAN_POINT('',(0.E0,0.E0,-3.E0));
#7=DIRECTION('',(0.E0,0.E0,1.E0));
#8=DIRECTION('',(-1.E0,0.E0,0.E0));
#9=AXIS2_PLACEMENT_3D('',#6,#7,#8);
#11=CARTESIAN_POINT('',(0.E0,0.E0,-3.E0));
#12=DIRECTION('',(0.E0,0.E0,1.E0));
#13=DIRECTION('',(1.E0,0.E0,0.E0));
#14=AXIS2_PLACEMENT_3D('',#11,#12,#13);
#16=CARTESIAN_POINT('',(0.E0,0.E0,-3.E0));
#17=DIRECTION('',(0.E0,0.E0,1.E0));
#18=DIRECTION('',(-1.E0,0.E0,0.E0));
#19=AXIS2_PLACEMENT_3D('',#16,#17,#18);
#21=CARTESIAN_POINT('',(0.E0,0.E0,-2.49E0));
#22=DIRECTION('',(0.E0,0.E0,-1.E0));
#23=DIRECTION('',(-1.E0,0.E0,0.E0));
#24=AXIS2_PLACEMENT_3D('',#21,#22,#23);
#26=DIRECTION('',(0.E0,0.E0,1.E0));
#27=VECTOR('',#26,4.98E0);
#28=CARTESIAN_POINT('',(4.E0,0.E0,-2.49E0));
#29=LINE('',#28,#27);
#30=CARTESIAN_POINT('',(0.E0,0.E0,2.49E0));
#31=DIRECTION('',(0.E0,0.E0,1.E0));
#32=DIRECTION('',(1.E0,0.E0,0.E0));
#33=AXIS2_PLACEMENT_3D('',#30,#31,#32);
#35=CARTESIAN_POINT('',(0.E0,0.E0,-2.5E0));
#36=DIRECTION('',(0.E0,0.E0,1.E0));
#37=DIRECTION('',(1.E0,0.E0,0.E0));
#38=AXIS2_PLACEMENT_3D('',#35,#36,#37);
#40=DIRECTION('',(0.E0,0.E0,1.E0));
#41=VECTOR('',#40,5.E-1);
#42=CARTESIAN_POINT('',(4.E0,0.E0,-3.E0));
#43=LINE('',#42,#41);
#44=CARTESIAN_POINT('',(0.E0,0.E0,2.5E0));
#45=DIRECTION('',(0.E0,0.E0,-1.E0));
#46=DIRECTION('',(-1.E0,0.E0,0.E0));
#47=AXIS2_PLACEMENT_3D('',#44,#45,#46);
#49=DIRECTION('',(0.E0,0.E0,1.E0));
#50=VECTOR('',#49,5.E-1);
#51=CARTESIAN_POINT('',(4.E0,0.E0,2.5E0));
#52=LINE('',#51,#50);
#53=CARTESIAN_POINT('',(0.E0,0.E0,-2.49E0));
#54=DIRECTION('',(0.E0,0.E0,1.E0));
#55=DIRECTION('',(1.E0,0.E0,0.E0));
#56=AXIS2_PLACEMENT_3D('',#53,#54,#55);
#58=CARTESIAN_POINT('',(0.E0,0.E0,-2.49E0));
#59=DIRECTION('',(0.E0,0.E0,1.E0));
#60=DIRECTION('',(-1.E0,0.E0,0.E0));
#61=AXIS2_PLACEMENT_3D('',#58,#59,#60);
#63=CARTESIAN_POINT('',(0.E0,0.E0,-2.49E0));
#64=DIRECTION('',(0.E0,0.E0,-1.E0));
#65=DIRECTION('',(1.E0,0.E0,0.E0));
#66=AXIS2_PLACEMENT_3D('',#63,#64,#65);
#68=DIRECTION('',(0.E0,0.E0,1.E0));
#69=VECTOR('',#68,4.98E0);
#70=CARTESIAN_POINT('',(-4.E0,0.E0,-2.49E0));
#71=LINE('',#70,#69);
#72=CARTESIAN_POINT('',(0.E0,0.E0,2.49E0));
#73=DIRECTION('',(0.E0,0.E0,1.E0));
#74=DIRECTION('',(-1.E0,0.E0,0.E0));
#75=AXIS2_PLACEMENT_3D('',#72,#73,#74);
#77=CARTESIAN_POINT('',(0.E0,0.E0,-2.5E0));
#78=DIRECTION('',(0.E0,0.E0,1.E0));
#79=DIRECTION('',(-1.E0,0.E0,0.E0));
#80=AXIS2_PLACEMENT_3D('',#77,#78,#79);
#82=DIRECTION('',(0.E0,0.E0,1.E0));
#83=VECTOR('',#82,5.E-1);
#84=CARTESIAN_POINT('',(-4.E0,0.E0,-3.E0));
#85=LINE('',#84,#83);
#86=CARTESIAN_POINT('',(0.E0,0.E0,2.5E0));
#87=DIRECTION('',(0.E0,0.E0,-1.E0));
#88=DIRECTION('',(1.E0,0.E0,0.E0));
#89=AXIS2_PLACEMENT_3D('',#86,#87,#88);
#91=DIRECTION('',(0.E0,0.E0,1.E0));
#92=VECTOR('',#91,5.E-1);
#93=CARTESIAN_POINT('',(-4.E0,0.E0,2.5E0));
#94=LINE('',#93,#92);
#95=CARTESIAN_POINT('',(0.E0,0.E0,2.49E0));
#96=DIRECTION('',(0.E0,0.E0,1.E0));
#97=DIRECTION('',(1.E0,0.E0,0.E0));
#98=AXIS2_PLACEMENT_3D('',#95,#96,#97);
#100=CARTESIAN_POINT('',(0.E0,0.E0,2.49E0));
#101=DIRECTION('',(0.E0,0.E0,1.E0));
#102=DIRECTION('',(-1.E0,0.E0,0.E0));
#103=AXIS2_PLACEMENT_3D('',#100,#101,#102);
#105=DIRECTION('',(0.E0,0.E0,1.E0));
#106=VECTOR('',#105,2.E1);
#107=CARTESIAN_POINT('',(4.E-1,0.E0,-2.3E1));
#108=LINE('',#107,#106);
#109=DIRECTION('',(0.E0,0.E0,1.E0));
#110=VECTOR('',#109,2.E1);
#111=CARTESIAN_POINT('',(4.E-1,0.E0,3.E0));
#112=LINE('',#111,#110);
#113=DIRECTION('',(0.E0,0.E0,1.E0));
#114=VECTOR('',#113,9.999999999996E-3);
#115=CARTESIAN_POINT('',(4.E-1,0.E0,-2.5E0));
#116=LINE('',#115,#114);
#117=DIRECTION('',(0.E0,0.E0,1.E0));
#118=VECTOR('',#117,1.E-2);
#119=CARTESIAN_POINT('',(4.E-1,0.E0,2.49E0));
#120=LINE('',#119,#118);
#121=DIRECTION('',(0.E0,0.E0,1.E0));
#122=VECTOR('',#121,2.E1);
#123=CARTESIAN_POINT('',(-4.E-1,0.E0,-2.3E1));
#124=LINE('',#123,#122);
#125=DIRECTION('',(0.E0,0.E0,1.E0));
#126=VECTOR('',#125,2.E1);
#127=CARTESIAN_POINT('',(-4.E-1,0.E0,3.E0));
#128=LINE('',#127,#126);
#129=DIRECTION('',(0.E0,0.E0,1.E0));
#130=VECTOR('',#129,9.999999999996E-3);
#131=CARTESIAN_POINT('',(-4.E-1,0.E0,-2.5E0));
#132=LINE('',#131,#130);
#133=DIRECTION('',(0.E0,0.E0,1.E0));
#134=VECTOR('',#133,1.E-2);
#135=CARTESIAN_POINT('',(-4.E-1,0.E0,2.49E0));
#136=LINE('',#135,#134);
#137=CARTESIAN_POINT('',(0.E0,0.E0,-2.3E1));
#138=DIRECTION('',(0.E0,0.E0,1.E0));
#139=DIRECTION('',(1.E0,0.E0,0.E0));
#140=AXIS2_PLACEMENT_3D('',#137,#138,#139);
#142=CARTESIAN_POINT('',(0.E0,0.E0,-2.3E1));
#143=DIRECTION('',(0.E0,0.E0,1.E0));
#144=DIRECTION('',(-1.E0,0.E0,0.E0));
#145=AXIS2_PLACEMENT_3D('',#142,#143,#144);
#147=CARTESIAN_POINT('',(0.E0,0.E0,3.E0));
#148=DIRECTION('',(0.E0,0.E0,1.E0));
#149=DIRECTION('',(1.E0,0.E0,0.E0));
#150=AXIS2_PLACEMENT_3D('',#147,#148,#149);
#152=CARTESIAN_POINT('',(0.E0,0.E0,3.E0));
#153=DIRECTION('',(0.E0,0.E0,1.E0));
#154=DIRECTION('',(-1.E0,0.E0,0.E0));
#155=AXIS2_PLACEMENT_3D('',#152,#153,#154);
#157=CARTESIAN_POINT('',(0.E0,0.E0,3.E0));
#158=DIRECTION('',(0.E0,0.E0,1.E0));
#159=DIRECTION('',(1.E0,0.E0,0.E0));
#160=AXIS2_PLACEMENT_3D('',#157,#158,#159);
#162=CARTESIAN_POINT('',(0.E0,0.E0,3.E0));
#163=DIRECTION('',(0.E0,0.E0,1.E0));
#164=DIRECTION('',(-1.E0,0.E0,0.E0));
#165=AXIS2_PLACEMENT_3D('',#162,#163,#164);
#167=CARTESIAN_POINT('',(0.E0,0.E0,2.3E1));
#168=DIRECTION('',(0.E0,0.E0,1.E0));
#169=DIRECTION('',(1.E0,0.E0,0.E0));
#170=AXIS2_PLACEMENT_3D('',#167,#168,#169);
#172=CARTESIAN_POINT('',(0.E0,0.E0,2.3E1));
#173=DIRECTION('',(0.E0,0.E0,1.E0));
#174=DIRECTION('',(-1.E0,0.E0,0.E0));
#175=AXIS2_PLACEMENT_3D('',#172,#173,#174);
#177=CARTESIAN_POINT('',(0.E0,0.E0,-2.5E0));
#178=DIRECTION('',(0.E0,0.E0,1.E0));
#179=DIRECTION('',(1.E0,0.E0,0.E0));
#180=AXIS2_PLACEMENT_3D('',#177,#178,#179);
#182=CARTESIAN_POINT('',(0.E0,0.E0,-2.5E0));
#183=DIRECTION('',(0.E0,0.E0,1.E0));
#184=DIRECTION('',(-1.E0,0.E0,0.E0));
#185=AXIS2_PLACEMENT_3D('',#182,#183,#184);
#187=CARTESIAN_POINT('',(0.E0,0.E0,2.5E0));
#188=DIRECTION('',(0.E0,0.E0,1.E0));
#189=DIRECTION('',(1.E0,0.E0,0.E0));
#190=AXIS2_PLACEMENT_3D('',#187,#188,#189);
#192=CARTESIAN_POINT('',(0.E0,0.E0,2.5E0));
#193=DIRECTION('',(0.E0,0.E0,1.E0));
#194=DIRECTION('',(-1.E0,0.E0,0.E0));
#195=AXIS2_PLACEMENT_3D('',#192,#193,#194);
#197=CARTESIAN_POINT('',(4.E0,0.E0,-3.E0));
#198=CARTESIAN_POINT('',(-4.E0,0.E0,-3.E0));
#199=VERTEX_POINT('',#197);
#200=VERTEX_POINT('',#198);
#201=CARTESIAN_POINT('',(4.E0,0.E0,3.E0));
#202=CARTESIAN_POINT('',(-4.E0,0.E0,3.E0));
#203=VERTEX_POINT('',#201);
#204=VERTEX_POINT('',#202);
#205=CARTESIAN_POINT('',(-4.E0,0.E0,-2.49E0));
#206=CARTESIAN_POINT('',(4.E0,0.E0,-2.49E0));
#207=VERTEX_POINT('',#205);
#208=VERTEX_POINT('',#206);
#209=CARTESIAN_POINT('',(4.E0,0.E0,-2.5E0));
#210=CARTESIAN_POINT('',(-4.E0,0.E0,-2.5E0));
#211=VERTEX_POINT('',#209);
#212=VERTEX_POINT('',#210);
#213=CARTESIAN_POINT('',(-4.E0,0.E0,2.5E0));
#214=CARTESIAN_POINT('',(4.E0,0.E0,2.5E0));
#215=VERTEX_POINT('',#213);
#216=VERTEX_POINT('',#214);
#217=CARTESIAN_POINT('',(4.E0,0.E0,2.49E0));
#218=CARTESIAN_POINT('',(-4.E0,0.E0,2.49E0));
#219=VERTEX_POINT('',#217);
#220=VERTEX_POINT('',#218);
#221=CARTESIAN_POINT('',(4.E-1,0.E0,-2.3E1));
#222=CARTESIAN_POINT('',(-4.E-1,0.E0,-2.3E1));
#223=VERTEX_POINT('',#221);
#224=VERTEX_POINT('',#222);
#225=CARTESIAN_POINT('',(4.E-1,0.E0,2.3E1));
#226=CARTESIAN_POINT('',(-4.E-1,0.E0,2.3E1));
#227=VERTEX_POINT('',#225);
#228=VERTEX_POINT('',#226);
#229=CARTESIAN_POINT('',(4.E-1,0.E0,-3.E0));
#230=CARTESIAN_POINT('',(-4.E-1,0.E0,-3.E0));
#231=VERTEX_POINT('',#229);
#232=VERTEX_POINT('',#230);
#233=CARTESIAN_POINT('',(4.E-1,0.E0,3.E0));
#234=CARTESIAN_POINT('',(-4.E-1,0.E0,3.E0));
#235=VERTEX_POINT('',#233);
#236=VERTEX_POINT('',#234);
#237=CARTESIAN_POINT('',(4.E-1,0.E0,-2.49E0));
#238=CARTESIAN_POINT('',(-4.E-1,0.E0,-2.49E0));
#239=VERTEX_POINT('',#237);
#240=VERTEX_POINT('',#238);
#241=CARTESIAN_POINT('',(4.E-1,0.E0,-2.5E0));
#242=CARTESIAN_POINT('',(-4.E-1,0.E0,-2.5E0));
#243=VERTEX_POINT('',#241);
#244=VERTEX_POINT('',#242);
#245=CARTESIAN_POINT('',(4.E-1,0.E0,2.5E0));
#246=CARTESIAN_POINT('',(-4.E-1,0.E0,2.5E0));
#247=VERTEX_POINT('',#245);
#248=VERTEX_POINT('',#246);
#249=CARTESIAN_POINT('',(4.E-1,0.E0,2.49E0));
#250=CARTESIAN_POINT('',(-4.E-1,0.E0,2.49E0));
#251=VERTEX_POINT('',#249);
#252=VERTEX_POINT('',#250);
#253=CARTESIAN_POINT('',(0.E0,0.E0,-3.E0));
#254=DIRECTION('',(0.E0,0.E0,1.E0));
#255=DIRECTION('',(1.E0,0.E0,0.E0));
#256=AXIS2_PLACEMENT_3D('',#253,#254,#255);
#257=PLANE('',#256);
#259=ORIENTED_EDGE('',*,*,#258,.T.);
#261=ORIENTED_EDGE('',*,*,#260,.T.);
#262=EDGE_LOOP('',(#259,#261));
#263=FACE_OUTER_BOUND('',#262,.F.);
#265=ORIENTED_EDGE('',*,*,#264,.F.);
#267=ORIENTED_EDGE('',*,*,#266,.F.);
#268=EDGE_LOOP('',(#265,#267));
#269=FACE_BOUND('',#268,.F.);
#271=CARTESIAN_POINT('',(0.E0,0.E0,-3.E0));
#272=DIRECTION('',(0.E0,0.E0,1.E0));
#273=DIRECTION('',(1.E0,0.E0,0.E0));
#274=AXIS2_PLACEMENT_3D('',#271,#272,#273);
#275=CYLINDRICAL_SURFACE('',#274,4.E0);
#277=ORIENTED_EDGE('',*,*,#276,.T.);
#279=ORIENTED_EDGE('',*,*,#278,.T.);
#281=ORIENTED_EDGE('',*,*,#280,.T.);
#283=ORIENTED_EDGE('',*,*,#282,.F.);
#284=EDGE_LOOP('',(#277,#279,#281,#283));
#285=FACE_OUTER_BOUND('',#284,.F.);
#287=CARTESIAN_POINT('',(0.E0,0.E0,-3.E0));
#288=DIRECTION('',(0.E0,0.E0,1.E0));
#289=DIRECTION('',(1.E0,0.E0,0.E0));
#290=AXIS2_PLACEMENT_3D('',#287,#288,#289);
#291=CYLINDRICAL_SURFACE('',#290,4.E0);
#293=ORIENTED_EDGE('',*,*,#292,.T.);
#295=ORIENTED_EDGE('',*,*,#294,.F.);
#296=ORIENTED_EDGE('',*,*,#258,.F.);
#298=ORIENTED_EDGE('',*,*,#297,.T.);
#299=EDGE_LOOP('',(#293,#295,#296,#298));
#300=FACE_OUTER_BOUND('',#299,.F.);
#302=CARTESIAN_POINT('',(0.E0,0.E0,-3.E0));
#303=DIRECTION('',(0.E0,0.E0,1.E0));
#304=DIRECTION('',(1.E0,0.E0,0.E0));
#305=AXIS2_PLACEMENT_3D('',#302,#303,#304);
#306=CYLINDRICAL_SURFACE('',#305,4.E0);
#308=ORIENTED_EDGE('',*,*,#307,.T.);
#310=ORIENTED_EDGE('',*,*,#309,.T.);
#312=ORIENTED_EDGE('',*,*,#311,.T.);
#314=ORIENTED_EDGE('',*,*,#313,.F.);
#315=EDGE_LOOP('',(#308,#310,#312,#314));
#316=FACE_OUTER_BOUND('',#315,.F.);
#318=CARTESIAN_POINT('',(-4.8E0,4.E0,-2.49E0));
#319=DIRECTION('',(0.E0,0.E0,1.E0));
#320=DIRECTION('',(0.E0,-1.E0,0.E0));
#321=AXIS2_PLACEMENT_3D('',#318,#319,#320);
#322=PLANE('',#321);
#323=ORIENTED_EDGE('',*,*,#276,.F.);
#325=ORIENTED_EDGE('',*,*,#324,.F.);
#326=EDGE_LOOP('',(#323,#325));
#327=FACE_OUTER_BOUND('',#326,.F.);
#329=ORIENTED_EDGE('',*,*,#328,.F.);
#331=ORIENTED_EDGE('',*,*,#330,.F.);
#332=EDGE_LOOP('',(#329,#331));
#333=FACE_BOUND('',#332,.F.);
#335=CARTESIAN_POINT('',(0.E0,0.E0,-3.E0));
#336=DIRECTION('',(0.E0,0.E0,1.E0));
#337=DIRECTION('',(1.E0,0.E0,0.E0));
#338=AXIS2_PLACEMENT_3D('',#335,#336,#337);
#339=CYLINDRICAL_SURFACE('',#338,4.E0);
#340=ORIENTED_EDGE('',*,*,#324,.T.);
#341=ORIENTED_EDGE('',*,*,#282,.T.);
#343=ORIENTED_EDGE('',*,*,#342,.T.);
#344=ORIENTED_EDGE('',*,*,#278,.F.);
#345=EDGE_LOOP('',(#340,#341,#343,#344));
#346=FACE_OUTER_BOUND('',#345,.F.);
#348=CARTESIAN_POINT('',(0.E0,0.E0,-3.E0));
#349=DIRECTION('',(0.E0,0.E0,1.E0));
#350=DIRECTION('',(1.E0,0.E0,0.E0));
#351=AXIS2_PLACEMENT_3D('',#348,#349,#350);
#352=CYLINDRICAL_SURFACE('',#351,4.E0);
#354=ORIENTED_EDGE('',*,*,#353,.T.);
#355=ORIENTED_EDGE('',*,*,#297,.F.);
#356=ORIENTED_EDGE('',*,*,#260,.F.);
#357=ORIENTED_EDGE('',*,*,#294,.T.);
#358=EDGE_LOOP('',(#354,#355,#356,#357));
#359=FACE_OUTER_BOUND('',#358,.F.);
#361=CARTESIAN_POINT('',(0.E0,0.E0,-3.E0));
#362=DIRECTION('',(0.E0,0.E0,1.E0));
#363=DIRECTION('',(1.E0,0.E0,0.E0));
#364=AXIS2_PLACEMENT_3D('',#361,#362,#363);
#365=CYLINDRICAL_SURFACE('',#364,4.E0);
#367=ORIENTED_EDGE('',*,*,#366,.T.);
#368=ORIENTED_EDGE('',*,*,#313,.T.);
#370=ORIENTED_EDGE('',*,*,#369,.T.);
#371=ORIENTED_EDGE('',*,*,#309,.F.);
#372=EDGE_LOOP('',(#367,#368,#370,#371));
#373=FACE_OUTER_BOUND('',#372,.F.);
#375=CARTESIAN_POINT('',(-4.8E0,-4.E0,2.49E0));
#376=DIRECTION('',(0.E0,0.E0,-1.E0));
#377=DIRECTION('',(0.E0,1.E0,0.E0));
#378=AXIS2_PLACEMENT_3D('',#375,#376,#377);
#379=PLANE('',#378);
#380=ORIENTED_EDGE('',*,*,#280,.F.);
#381=ORIENTED_EDGE('',*,*,#342,.F.);
#382=EDGE_LOOP('',(#380,#381));
#383=FACE_OUTER_BOUND('',#382,.F.);
#385=ORIENTED_EDGE('',*,*,#384,.T.);
#387=ORIENTED_EDGE('',*,*,#386,.T.);
#388=EDGE_LOOP('',(#385,#387));
#389=FACE_BOUND('',#388,.F.);
#391=CARTESIAN_POINT('',(0.E0,0.E0,-2.3E1));
#392=DIRECTION('',(0.E0,0.E0,1.E0));
#393=DIRECTION('',(1.E0,0.E0,0.E0));
#394=AXIS2_PLACEMENT_3D('',#391,#392,#393);
#395=CYLINDRICAL_SURFACE('',#394,4.E-1);
#396=ORIENTED_EDGE('',*,*,#264,.T.);
#398=ORIENTED_EDGE('',*,*,#397,.F.);
#400=ORIENTED_EDGE('',*,*,#399,.F.);
#402=ORIENTED_EDGE('',*,*,#401,.T.);
#403=EDGE_LOOP('',(#396,#398,#400,#402));
#404=FACE_OUTER_BOUND('',#403,.F.);
#406=CARTESIAN_POINT('',(0.E0,0.E0,-2.3E1));
#407=DIRECTION('',(0.E0,0.E0,1.E0));
#408=DIRECTION('',(1.E0,0.E0,0.E0));
#409=AXIS2_PLACEMENT_3D('',#406,#407,#408);
#410=CYLINDRICAL_SURFACE('',#409,4.E-1);
#412=ORIENTED_EDGE('',*,*,#411,.F.);
#414=ORIENTED_EDGE('',*,*,#413,.T.);
#416=ORIENTED_EDGE('',*,*,#415,.T.);
#418=ORIENTED_EDGE('',*,*,#417,.F.);
#419=EDGE_LOOP('',(#412,#414,#416,#418));
#420=FACE_OUTER_BOUND('',#419,.F.);
#422=CARTESIAN_POINT('',(0.E0,0.E0,-2.3E1));
#423=DIRECTION('',(0.E0,0.E0,1.E0));
#424=DIRECTION('',(1.E0,0.E0,0.E0));
#425=AXIS2_PLACEMENT_3D('',#422,#423,#424);
#426=CYLINDRICAL_SURFACE('',#425,4.E-1);
#427=ORIENTED_EDGE('',*,*,#328,.T.);
#429=ORIENTED_EDGE('',*,*,#428,.F.);
#431=ORIENTED_EDGE('',*,*,#430,.F.);
#433=ORIENTED_EDGE('',*,*,#432,.T.);
#434=EDGE_LOOP('',(#427,#429,#431,#433));
#435=FACE_OUTER_BOUND('',#434,.F.);
#437=CARTESIAN_POINT('',(0.E0,0.E0,-2.3E1));
#438=DIRECTION('',(0.E0,0.E0,1.E0));
#439=DIRECTION('',(1.E0,0.E0,0.E0));
#440=AXIS2_PLACEMENT_3D('',#437,#438,#439);
#441=CYLINDRICAL_SURFACE('',#440,4.E-1);
#443=ORIENTED_EDGE('',*,*,#442,.T.);
#445=ORIENTED_EDGE('',*,*,#444,.F.);
#446=ORIENTED_EDGE('',*,*,#384,.F.);
#448=ORIENTED_EDGE('',*,*,#447,.T.);
#449=EDGE_LOOP('',(#443,#445,#446,#448));
#450=FACE_OUTER_BOUND('',#449,.F.);
#452=CARTESIAN_POINT('',(0.E0,0.E0,-2.3E1));
#453=DIRECTION('',(0.E0,0.E0,1.E0));
#454=DIRECTION('',(1.E0,0.E0,0.E0));
#455=AXIS2_PLACEMENT_3D('',#452,#453,#454);
#456=CYLINDRICAL_SURFACE('',#455,4.E-1);
#457=ORIENTED_EDGE('',*,*,#266,.T.);
#458=ORIENTED_EDGE('',*,*,#401,.F.);
#460=ORIENTED_EDGE('',*,*,#459,.F.);
#461=ORIENTED_EDGE('',*,*,#397,.T.);
#462=EDGE_LOOP('',(#457,#458,#460,#461));
#463=FACE_OUTER_BOUND('',#462,.F.);
#465=CARTESIAN_POINT('',(0.E0,0.E0,-2.3E1));
#466=DIRECTION('',(0.E0,0.E0,1.E0));
#467=DIRECTION('',(1.E0,0.E0,0.E0));
#468=AXIS2_PLACEMENT_3D('',#465,#466,#467);
#469=CYLINDRICAL_SURFACE('',#468,4.E-1);
#471=ORIENTED_EDGE('',*,*,#470,.F.);
#472=ORIENTED_EDGE('',*,*,#417,.T.);
#474=ORIENTED_EDGE('',*,*,#473,.T.);
#475=ORIENTED_EDGE('',*,*,#413,.F.);
#476=EDGE_LOOP('',(#471,#472,#474,#475));
#477=FACE_OUTER_BOUND('',#476,.F.);
#479=CARTESIAN_POINT('',(0.E0,0.E0,-2.3E1));
#480=DIRECTION('',(0.E0,0.E0,1.E0));
#481=DIRECTION('',(1.E0,0.E0,0.E0));
#482=AXIS2_PLACEMENT_3D('',#479,#480,#481);
#483=CYLINDRICAL_SURFACE('',#482,4.E-1);
#484=ORIENTED_EDGE('',*,*,#330,.T.);
#485=ORIENTED_EDGE('',*,*,#432,.F.);
#487=ORIENTED_EDGE('',*,*,#486,.F.);
#488=ORIENTED_EDGE('',*,*,#428,.T.);
#489=EDGE_LOOP('',(#484,#485,#487,#488));
#490=FACE_OUTER_BOUND('',#489,.F.);
#492=CARTESIAN_POINT('',(0.E0,0.E0,-2.3E1));
#493=DIRECTION('',(0.E0,0.E0,1.E0));
#494=DIRECTION('',(1.E0,0.E0,0.E0));
#495=AXIS2_PLACEMENT_3D('',#492,#493,#494);
#496=CYLINDRICAL_SURFACE('',#495,4.E-1);
#498=ORIENTED_EDGE('',*,*,#497,.T.);
#499=ORIENTED_EDGE('',*,*,#447,.F.);
#500=ORIENTED_EDGE('',*,*,#386,.F.);
#501=ORIENTED_EDGE('',*,*,#444,.T.);
#502=EDGE_LOOP('',(#498,#499,#500,#501));
#503=FACE_OUTER_BOUND('',#502,.F.);
#505=CARTESIAN_POINT('',(0.E0,0.E0,-2.3E1));
#506=DIRECTION('',(0.E0,0.E0,1.E0));
#507=DIRECTION('',(1.E0,0.E0,0.E0));
#508=AXIS2_PLACEMENT_3D('',#505,#506,#507);
#509=PLANE('',#508);
#510=ORIENTED_EDGE('',*,*,#399,.T.);
#511=ORIENTED_EDGE('',*,*,#459,.T.);
#512=EDGE_LOOP('',(#510,#511));
#513=FACE_OUTER_BOUND('',#512,.F.);
#515=CARTESIAN_POINT('',(0.E0,0.E0,3.E0));
#516=DIRECTION('',(0.E0,0.E0,1.E0));
#517=DIRECTION('',(1.E0,0.E0,0.E0));
#518=AXIS2_PLACEMENT_3D('',#515,#516,#517);
#519=PLANE('',#518);
#520=ORIENTED_EDGE('',*,*,#311,.F.);
#521=ORIENTED_EDGE('',*,*,#369,.F.);
#522=EDGE_LOOP('',(#520,#521));
#523=FACE_OUTER_BOUND('',#522,.F.);
#524=ORIENTED_EDGE('',*,*,#411,.T.);
#525=ORIENTED_EDGE('',*,*,#470,.T.);
#526=EDGE_LOOP('',(#524,#525));
#527=FACE_BOUND('',#526,.F.);
#529=CARTESIAN_POINT('',(0.E0,0.E0,2.3E1));
#530=DIRECTION('',(0.E0,0.E0,1.E0));
#531=DIRECTION('',(1.E0,0.E0,0.E0));
#532=AXIS2_PLACEMENT_3D('',#529,#530,#531);
#533=PLANE('',#532);
#534=ORIENTED_EDGE('',*,*,#415,.F.);
#535=ORIENTED_EDGE('',*,*,#473,.F.);
#536=EDGE_LOOP('',(#534,#535));
#537=FACE_OUTER_BOUND('',#536,.F.);
#539=CARTESIAN_POINT('',(-4.8E0,-4.E0,-2.5E0));
#540=DIRECTION('',(0.E0,0.E0,-1.E0));
#541=DIRECTION('',(0.E0,1.E0,0.E0));
#542=AXIS2_PLACEMENT_3D('',#539,#540,#541);
#543=PLANE('',#542);
#544=ORIENTED_EDGE('',*,*,#292,.F.);
#545=ORIENTED_EDGE('',*,*,#353,.F.);
#546=EDGE_LOOP('',(#544,#545));
#547=FACE_OUTER_BOUND('',#546,.F.);
#548=ORIENTED_EDGE('',*,*,#430,.T.);
#549=ORIENTED_EDGE('',*,*,#486,.T.);
#550=EDGE_LOOP('',(#548,#549));
#551=FACE_BOUND('',#550,.F.);
#553=CARTESIAN_POINT('',(-4.8E0,4.E0,2.5E0));
#554=DIRECTION('',(0.E0,0.E0,1.E0));
#555=DIRECTION('',(0.E0,-1.E0,0.E0));
#556=AXIS2_PLACEMENT_3D('',#553,#554,#555);
#557=PLANE('',#556);
#558=ORIENTED_EDGE('',*,*,#307,.F.);
#559=ORIENTED_EDGE('',*,*,#366,.F.);
#560=EDGE_LOOP('',(#558,#559));
#561=FACE_OUTER_BOUND('',#560,.F.);
#562=ORIENTED_EDGE('',*,*,#442,.F.);
#563=ORIENTED_EDGE('',*,*,#497,.F.);
#564=EDGE_LOOP('',(#562,#563));
#565=FACE_BOUND('',#564,.F.);
#567=CLOSED_SHELL('',(#270,#286,#301,#317,#334,#347,#360,#374,#390,#405,#421,
#436,#451,#464,#478,#491,#504,#514,#528,#538,#552,#566));
#568=MANIFOLD_SOLID_BREP('',#567);
#570=DIMENSIONAL_EXPONENTS(0.E0,0.E0,0.E0,0.E0,0.E0,0.E0,0.E0);
#572=PLANE_ANGLE_MEASURE_WITH_UNIT(PLANE_ANGLE_MEASURE(1.745329251994E-2),#571);
#573=(CONVERSION_BASED_UNIT('DEGREE',#572)NAMED_UNIT(*)PLANE_ANGLE_UNIT());
#575=UNCERTAINTY_MEASURE_WITH_UNIT(LENGTH_MEASURE(1.973726585559E-3),#569,
'closure',
'Maximum model space distance between geometric entities at asserted connectivities');
#578=APPLICATION_CONTEXT(
'CONFIGURATION CONTROLLED 3D DESIGNS OF MECHANICAL PARTS AND ASSEMBLIES');
#579=APPLICATION_PROTOCOL_DEFINITION('international standard',
'config_control_design',1994,#578);
#580=DESIGN_CONTEXT('',#578,'design');
#581=MECHANICAL_CONTEXT('',#578,'mechanical');
#582=PRODUCT('2049-XX-B','2049-XX-B','NOT SPECIFIED',(#581));
#583=PRODUCT_DEFINITION_FORMATION_WITH_SPECIFIED_SOURCE('1','LAST_VERSION',#582,
.MADE.);
#587=PRODUCT_CATEGORY('part','');
#588=PRODUCT_RELATED_PRODUCT_CATEGORY('detail','',(#582));
#589=PRODUCT_CATEGORY_RELATIONSHIP('','',#587,#588);
#590=SECURITY_CLASSIFICATION_LEVEL('unclassified');
#591=SECURITY_CLASSIFICATION('','',#590);
#592=CC_DESIGN_SECURITY_CLASSIFICATION(#591,(#583));
#593=APPROVAL_STATUS('approved');
#594=APPROVAL(#593,'');
#595=CC_DESIGN_APPROVAL(#594,(#591,#583,#584));
#596=CALENDAR_DATE(112,31,7);
#597=COORDINATED_UNIVERSAL_TIME_OFFSET(7,0,.BEHIND.);
#598=LOCAL_TIME(8,48,1.4E1,#597);
#599=DATE_AND_TIME(#596,#598);
#600=APPROVAL_DATE_TIME(#599,#594);
#601=DATE_TIME_ROLE('creation_date');
#602=CC_DESIGN_DATE_AND_TIME_ASSIGNMENT(#599,#601,(#584));
#603=DATE_TIME_ROLE('classification_date');
#604=CC_DESIGN_DATE_AND_TIME_ASSIGNMENT(#599,#603,(#591));
#605=PERSON('UNSPECIFIED','UNSPECIFIED',$,$,$,$);
#606=ORGANIZATION('UNSPECIFIED','UNSPECIFIED','UNSPECIFIED');
#607=PERSON_AND_ORGANIZATION(#605,#606);
#608=APPROVAL_ROLE('approver');
#609=APPROVAL_PERSON_ORGANIZATION(#607,#594,#608);
#610=PERSON_AND_ORGANIZATION_ROLE('creator');
#611=CC_DESIGN_PERSON_AND_ORGANIZATION_ASSIGNMENT(#607,#610,(#583,#584));
#612=PERSON_AND_ORGANIZATION_ROLE('design_supplier');
#613=CC_DESIGN_PERSON_AND_ORGANIZATION_ASSIGNMENT(#607,#612,(#583));
#614=PERSON_AND_ORGANIZATION_ROLE('classification_officer');
#615=CC_DESIGN_PERSON_AND_ORGANIZATION_ASSIGNMENT(#607,#614,(#591));
#616=PERSON_AND_ORGANIZATION_ROLE('design_owner');
#617=CC_DESIGN_PERSON_AND_ORGANIZATION_ASSIGNMENT(#607,#616,(#582));
#5=CIRCLE('',#4,4.E0);
#10=CIRCLE('',#9,4.E0);
#15=CIRCLE('',#14,4.E-1);
#20=CIRCLE('',#19,4.E-1);
#25=CIRCLE('',#24,4.E0);
#34=CIRCLE('',#33,4.E0);
#39=CIRCLE('',#38,4.E0);
#48=CIRCLE('',#47,4.E0);
#57=CIRCLE('',#56,4.E-1);
#62=CIRCLE('',#61,4.E-1);
#67=CIRCLE('',#66,4.E0);
#76=CIRCLE('',#75,4.E0);
#81=CIRCLE('',#80,4.E0);
#90=CIRCLE('',#89,4.E0);
#99=CIRCLE('',#98,4.E-1);
#104=CIRCLE('',#103,4.E-1);
#141=CIRCLE('',#140,4.E-1);
#146=CIRCLE('',#145,4.E-1);
#151=CIRCLE('',#150,4.E0);
#156=CIRCLE('',#155,4.E0);
#161=CIRCLE('',#160,4.E-1);
#166=CIRCLE('',#165,4.E-1);
#171=CIRCLE('',#170,4.E-1);
#176=CIRCLE('',#175,4.E-1);
#181=CIRCLE('',#180,4.E-1);
#186=CIRCLE('',#185,4.E-1);
#191=CIRCLE('',#190,4.E-1);
#196=CIRCLE('',#195,4.E-1);
#258=EDGE_CURVE('',#199,#200,#5,.T.);
#260=EDGE_CURVE('',#200,#199,#10,.T.);
#264=EDGE_CURVE('',#231,#232,#15,.T.);
#266=EDGE_CURVE('',#232,#231,#20,.T.);
#270=ADVANCED_FACE('',(#263,#269),#257,.F.);
#276=EDGE_CURVE('',#207,#208,#25,.T.);
#278=EDGE_CURVE('',#208,#219,#29,.T.);
#280=EDGE_CURVE('',#219,#220,#34,.T.);
#282=EDGE_CURVE('',#207,#220,#71,.T.);
#286=ADVANCED_FACE('',(#285),#275,.T.);
#292=EDGE_CURVE('',#211,#212,#39,.T.);
#294=EDGE_CURVE('',#200,#212,#85,.T.);
#297=EDGE_CURVE('',#199,#211,#43,.T.);
#301=ADVANCED_FACE('',(#300),#291,.T.);
#307=EDGE_CURVE('',#215,#216,#48,.T.);
#309=EDGE_CURVE('',#216,#203,#52,.T.);
#311=EDGE_CURVE('',#203,#204,#151,.T.);
#313=EDGE_CURVE('',#215,#204,#94,.T.);
#317=ADVANCED_FACE('',(#316),#306,.T.);
#324=EDGE_CURVE('',#208,#207,#67,.T.);
#328=EDGE_CURVE('',#239,#240,#57,.T.);
#330=EDGE_CURVE('',#240,#239,#62,.T.);
#334=ADVANCED_FACE('',(#327,#333),#322,.F.);
#342=EDGE_CURVE('',#220,#219,#76,.T.);
#347=ADVANCED_FACE('',(#346),#339,.T.);
#353=EDGE_CURVE('',#212,#211,#81,.T.);
#360=ADVANCED_FACE('',(#359),#352,.T.);
#366=EDGE_CURVE('',#216,#215,#90,.T.);
#369=EDGE_CURVE('',#204,#203,#156,.T.);
#374=ADVANCED_FACE('',(#373),#365,.T.);
#384=EDGE_CURVE('',#251,#252,#99,.T.);
#386=EDGE_CURVE('',#252,#251,#104,.T.);
#390=ADVANCED_FACE('',(#383,#389),#379,.F.);
#397=EDGE_CURVE('',#224,#232,#124,.T.);
#399=EDGE_CURVE('',#223,#224,#141,.T.);
#401=EDGE_CURVE('',#223,#231,#108,.T.);
#405=ADVANCED_FACE('',(#404),#395,.T.);
#411=EDGE_CURVE('',#235,#236,#161,.T.);
#413=EDGE_CURVE('',#235,#227,#112,.T.);
#415=EDGE_CURVE('',#227,#228,#171,.T.);
#417=EDGE_CURVE('',#236,#228,#128,.T.);
#421=ADVANCED_FACE('',(#420),#410,.T.);
#428=EDGE_CURVE('',#244,#240,#132,.T.);
#430=EDGE_CURVE('',#243,#244,#181,.T.);
#432=EDGE_CURVE('',#243,#239,#116,.T.);
#436=ADVANCED_FACE('',(#435),#426,.T.);
#442=EDGE_CURVE('',#247,#248,#191,.T.);
#444=EDGE_CURVE('',#252,#248,#136,.T.);
#447=EDGE_CURVE('',#251,#247,#120,.T.);
#451=ADVANCED_FACE('',(#450),#441,.T.);
#459=EDGE_CURVE('',#224,#223,#146,.T.);
#464=ADVANCED_FACE('',(#463),#456,.T.);
#470=EDGE_CURVE('',#236,#235,#166,.T.);
#473=EDGE_CURVE('',#228,#227,#176,.T.);
#478=ADVANCED_FACE('',(#477),#469,.T.);
#486=EDGE_CURVE('',#244,#243,#186,.T.);
#491=ADVANCED_FACE('',(#490),#483,.T.);
#497=EDGE_CURVE('',#248,#247,#196,.T.);
#504=ADVANCED_FACE('',(#503),#496,.T.);
#514=ADVANCED_FACE('',(#513),#509,.F.);
#528=ADVANCED_FACE('',(#523,#527),#519,.T.);
#538=ADVANCED_FACE('',(#537),#533,.T.);
#552=ADVANCED_FACE('',(#547,#551),#543,.F.);
#566=ADVANCED_FACE('',(#561,#565),#557,.F.);
#569=(LENGTH_UNIT()NAMED_UNIT(*)SI_UNIT(.MILLI.,.METRE.));
#571=(NAMED_UNIT(*)PLANE_ANGLE_UNIT()SI_UNIT($,.RADIAN.));
#574=(NAMED_UNIT(*)SI_UNIT($,.STERADIAN.)SOLID_ANGLE_UNIT());
#576=(GEOMETRIC_REPRESENTATION_CONTEXT(3)GLOBAL_UNCERTAINTY_ASSIGNED_CONTEXT((
#575))GLOBAL_UNIT_ASSIGNED_CONTEXT((#569,#573,#574))REPRESENTATION_CONTEXT
('ID1','3'));
#577=ADVANCED_BREP_SHAPE_REPRESENTATION('',(#568),#576);
#584=PRODUCT_DEFINITION('design','',#583,#580);
#585=PRODUCT_DEFINITION_SHAPE('','SHAPE FOR 2049-XX-B.',#584);
#586=SHAPE_DEFINITION_REPRESENTATION(#585,#577);
ENDSEC;
END-ISO-10303-21;
