ISO-10303-21;
HEADER;
FILE_DESCRIPTION((''),'2;1');
FILE_NAME('2047-XX-A','2012-07-30T',('ryans'),('Bourns, Inc.'),
'PRO/ENGINEER BY PARAMETRIC TECHNOLOGY CORPORATION, 2010100',
'PRO/ENGINEER BY PARAMETRIC TECHNOLOGY CORPORATION, 2010100','');
FILE_SCHEMA(('CONFIG_CONTROL_DESIGN'));
ENDSEC;
DATA;
#1=CARTESIAN_POINT('',(0.E0,1.224646799147E-14,-6.35E0));
#2=DIRECTION('',(0.E0,0.E0,1.E0));
#3=DIRECTION('',(1.E0,0.E0,0.E0));
#4=AXIS2_PLACEMENT_3D('',#1,#2,#3);
#6=CARTESIAN_POINT('',(0.E0,1.224646799147E-14,-6.35E0));
#7=DIRECTION('',(0.E0,0.E0,1.E0));
#8=DIRECTION('',(-1.E0,0.E0,0.E0));
#9=AXIS2_PLACEMENT_3D('',#6,#7,#8);
#11=CARTESIAN_POINT('',(0.E0,0.E0,-6.35E0));
#12=DIRECTION('',(0.E0,0.E0,-1.E0));
#13=DIRECTION('',(1.E0,0.E0,0.E0));
#14=AXIS2_PLACEMENT_3D('',#11,#12,#13);
#16=CARTESIAN_POINT('',(0.E0,0.E0,-6.35E0));
#17=DIRECTION('',(0.E0,0.E0,-1.E0));
#18=DIRECTION('',(-1.E0,0.E0,0.E0));
#19=AXIS2_PLACEMENT_3D('',#16,#17,#18);
#21=CARTESIAN_POINT('',(0.E0,1.224646799147E-14,-5.55E0));
#22=DIRECTION('',(0.E0,0.E0,1.E0));
#23=DIRECTION('',(1.E0,0.E0,0.E0));
#24=AXIS2_PLACEMENT_3D('',#21,#22,#23);
#26=DIRECTION('',(0.E0,0.E0,1.E0));
#27=VECTOR('',#26,8.E-1);
#28=CARTESIAN_POINT('',(6.35E0,1.146881727401E-14,-6.35E0));
#29=LINE('',#28,#27);
#30=CARTESIAN_POINT('',(0.E0,1.224646799147E-14,-5.55E0));
#31=DIRECTION('',(0.E0,0.E0,1.E0));
#32=DIRECTION('',(-1.E0,0.E0,0.E0));
#33=AXIS2_PLACEMENT_3D('',#30,#31,#32);
#35=DIRECTION('',(0.E0,0.E0,1.E0));
#36=VECTOR('',#35,8.E-1);
#37=CARTESIAN_POINT('',(-6.35E0,1.302411870893E-14,-6.35E0));
#38=LINE('',#37,#36);
#39=DIRECTION('',(0.E0,0.E0,1.E0));
#40=VECTOR('',#39,5.E-1);
#41=CARTESIAN_POINT('',(3.25E0,0.E0,-6.35E0));
#42=LINE('',#41,#40);
#43=DIRECTION('',(0.E0,0.E0,1.E0));
#44=VECTOR('',#43,5.E-1);
#45=CARTESIAN_POINT('',(-3.25E0,0.E0,-6.35E0));
#46=LINE('',#45,#44);
#47=CARTESIAN_POINT('',(0.E0,0.E0,-5.85E0));
#48=DIRECTION('',(0.E0,0.E0,-1.E0));
#49=DIRECTION('',(1.E0,0.E0,0.E0));
#50=AXIS2_PLACEMENT_3D('',#47,#48,#49);
#52=CARTESIAN_POINT('',(0.E0,0.E0,-5.85E0));
#53=DIRECTION('',(0.E0,0.E0,-1.E0));
#54=DIRECTION('',(-1.E0,0.E0,0.E0));
#55=AXIS2_PLACEMENT_3D('',#52,#53,#54);
#57=CARTESIAN_POINT('',(6.35E0,1.146881727401E-14,-6.35E0));
#58=CARTESIAN_POINT('',(-6.35E0,1.380176942639E-14,-6.35E0));
#59=VERTEX_POINT('',#57);
#60=VERTEX_POINT('',#58);
#61=CARTESIAN_POINT('',(6.35E0,1.154631945610E-14,-5.55E0));
#62=CARTESIAN_POINT('',(-6.35E0,1.372426724430E-14,-5.55E0));
#63=VERTEX_POINT('',#61);
#64=VERTEX_POINT('',#62);
#65=CARTESIAN_POINT('',(3.25E0,0.E0,-5.85E0));
#66=CARTESIAN_POINT('',(-3.25E0,0.E0,-5.85E0));
#67=VERTEX_POINT('',#65);
#68=VERTEX_POINT('',#66);
#69=CARTESIAN_POINT('',(3.25E0,0.E0,-6.35E0));
#70=CARTESIAN_POINT('',(-3.25E0,0.E0,-6.35E0));
#71=VERTEX_POINT('',#69);
#72=VERTEX_POINT('',#70);
#73=CARTESIAN_POINT('',(0.E0,0.E0,-6.35E0));
#74=DIRECTION('',(0.E0,0.E0,1.E0));
#75=DIRECTION('',(1.E0,0.E0,0.E0));
#76=AXIS2_PLACEMENT_3D('',#73,#74,#75);
#77=PLANE('',#76);
#79=ORIENTED_EDGE('',*,*,#78,.T.);
#81=ORIENTED_EDGE('',*,*,#80,.T.);
#82=EDGE_LOOP('',(#79,#81));
#83=FACE_OUTER_BOUND('',#82,.F.);
#85=ORIENTED_EDGE('',*,*,#84,.T.);
#87=ORIENTED_EDGE('',*,*,#86,.T.);
#88=EDGE_LOOP('',(#85,#87));
#89=FACE_BOUND('',#88,.F.);
#91=CARTESIAN_POINT('',(0.E0,1.224646799147E-14,-6.35E0));
#92=DIRECTION('',(0.E0,0.E0,1.E0));
#93=DIRECTION('',(1.E0,0.E0,0.E0));
#94=AXIS2_PLACEMENT_3D('',#91,#92,#93);
#95=CYLINDRICAL_SURFACE('',#94,6.35E0);
#97=ORIENTED_EDGE('',*,*,#96,.T.);
#99=ORIENTED_EDGE('',*,*,#98,.F.);
#100=ORIENTED_EDGE('',*,*,#78,.F.);
#102=ORIENTED_EDGE('',*,*,#101,.T.);
#103=EDGE_LOOP('',(#97,#99,#100,#102));
#104=FACE_OUTER_BOUND('',#103,.F.);
#106=CARTESIAN_POINT('',(-7.62E0,-6.35E0,-5.55E0));
#107=DIRECTION('',(0.E0,0.E0,-1.E0));
#108=DIRECTION('',(0.E0,1.E0,0.E0));
#109=AXIS2_PLACEMENT_3D('',#106,#107,#108);
#110=PLANE('',#109);
#111=ORIENTED_EDGE('',*,*,#96,.F.);
#113=ORIENTED_EDGE('',*,*,#112,.F.);
#114=EDGE_LOOP('',(#111,#113));
#115=FACE_OUTER_BOUND('',#114,.F.);
#117=CARTESIAN_POINT('',(0.E0,1.224646799147E-14,-6.35E0));
#118=DIRECTION('',(0.E0,0.E0,1.E0));
#119=DIRECTION('',(1.E0,0.E0,0.E0));
#120=AXIS2_PLACEMENT_3D('',#117,#118,#119);
#121=CYLINDRICAL_SURFACE('',#120,6.35E0);
#122=ORIENTED_EDGE('',*,*,#112,.T.);
#123=ORIENTED_EDGE('',*,*,#101,.F.);
#124=ORIENTED_EDGE('',*,*,#80,.F.);
#125=ORIENTED_EDGE('',*,*,#98,.T.);
#126=EDGE_LOOP('',(#122,#123,#124,#125));
#127=FACE_OUTER_BOUND('',#126,.F.);
#129=CARTESIAN_POINT('',(0.E0,0.E0,-6.35E0));
#130=DIRECTION('',(0.E0,0.E0,-1.E0));
#131=DIRECTION('',(1.E0,0.E0,0.E0));
#132=AXIS2_PLACEMENT_3D('',#129,#130,#131);
#133=CYLINDRICAL_SURFACE('',#132,3.25E0);
#134=ORIENTED_EDGE('',*,*,#84,.F.);
#136=ORIENTED_EDGE('',*,*,#135,.T.);
#138=ORIENTED_EDGE('',*,*,#137,.T.);
#140=ORIENTED_EDGE('',*,*,#139,.F.);
#141=EDGE_LOOP('',(#134,#136,#138,#140));
#142=FACE_OUTER_BOUND('',#141,.F.);
#144=CARTESIAN_POINT('',(0.E0,0.E0,-6.35E0));
#145=DIRECTION('',(0.E0,0.E0,-1.E0));
#146=DIRECTION('',(1.E0,0.E0,0.E0));
#147=AXIS2_PLACEMENT_3D('',#144,#145,#146);
#148=CYLINDRICAL_SURFACE('',#147,3.25E0);
#149=ORIENTED_EDGE('',*,*,#86,.F.);
#150=ORIENTED_EDGE('',*,*,#139,.T.);
#152=ORIENTED_EDGE('',*,*,#151,.T.);
#153=ORIENTED_EDGE('',*,*,#135,.F.);
#154=EDGE_LOOP('',(#149,#150,#152,#153));
#155=FACE_OUTER_BOUND('',#154,.F.);
#157=CARTESIAN_POINT('',(0.E0,0.E0,-5.85E0));
#158=DIRECTION('',(0.E0,0.E0,-1.E0));
#159=DIRECTION('',(1.E0,0.E0,0.E0));
#160=AXIS2_PLACEMENT_3D('',#157,#158,#159);
#161=PLANE('',#160);
#162=ORIENTED_EDGE('',*,*,#137,.F.);
#163=ORIENTED_EDGE('',*,*,#151,.F.);
#164=EDGE_LOOP('',(#162,#163));
#165=FACE_OUTER_BOUND('',#164,.F.);
#167=CLOSED_SHELL('',(#90,#105,#116,#128,#143,#156,#166));
#168=MANIFOLD_SOLID_BREP('',#167);
#169=CARTESIAN_POINT('',(0.E0,1.224646799147E-14,6.35E0));
#170=DIRECTION('',(0.E0,0.E0,1.E0));
#171=DIRECTION('',(1.E0,0.E0,0.E0));
#172=AXIS2_PLACEMENT_3D('',#169,#170,#171);
#174=CARTESIAN_POINT('',(0.E0,1.224646799147E-14,6.35E0));
#175=DIRECTION('',(0.E0,0.E0,1.E0));
#176=DIRECTION('',(-1.E0,0.E0,0.E0));
#177=AXIS2_PLACEMENT_3D('',#174,#175,#176);
#179=CARTESIAN_POINT('',(0.E0,0.E0,6.35E0));
#180=DIRECTION('',(0.E0,0.E0,1.E0));
#181=DIRECTION('',(1.E0,0.E0,0.E0));
#182=AXIS2_PLACEMENT_3D('',#179,#180,#181);
#184=CARTESIAN_POINT('',(0.E0,0.E0,6.35E0));
#185=DIRECTION('',(0.E0,0.E0,1.E0));
#186=DIRECTION('',(-1.E0,0.E0,0.E0));
#187=AXIS2_PLACEMENT_3D('',#184,#185,#186);
#189=CARTESIAN_POINT('',(0.E0,1.224646799147E-14,5.55E0));
#190=DIRECTION('',(0.E0,0.E0,-1.E0));
#191=DIRECTION('',(-1.E0,0.E0,0.E0));
#192=AXIS2_PLACEMENT_3D('',#189,#190,#191);
#194=DIRECTION('',(0.E0,0.E0,1.E0));
#195=VECTOR('',#194,8.E-1);
#196=CARTESIAN_POINT('',(6.35E0,1.123543442889E-14,5.55E0));
#197=LINE('',#196,#195);
#198=CARTESIAN_POINT('',(0.E0,1.224646799147E-14,5.55E0));
#199=DIRECTION('',(0.E0,0.E0,-1.E0));
#200=DIRECTION('',(1.E0,0.E0,0.E0));
#201=AXIS2_PLACEMENT_3D('',#198,#199,#200);
#203=DIRECTION('',(0.E0,0.E0,1.E0));
#204=VECTOR('',#203,8.E-1);
#205=CARTESIAN_POINT('',(-6.35E0,1.312363790446E-14,5.55E0));
#206=LINE('',#205,#204);
#207=DIRECTION('',(0.E0,0.E0,-1.E0));
#208=VECTOR('',#207,5.E-1);
#209=CARTESIAN_POINT('',(3.25E0,0.E0,6.35E0));
#210=LINE('',#209,#208);
#211=DIRECTION('',(0.E0,0.E0,-1.E0));
#212=VECTOR('',#211,5.E-1);
#213=CARTESIAN_POINT('',(-3.25E0,0.E0,6.35E0));
#214=LINE('',#213,#212);
#215=CARTESIAN_POINT('',(0.E0,0.E0,5.85E0));
#216=DIRECTION('',(0.E0,0.E0,1.E0));
#217=DIRECTION('',(1.E0,0.E0,0.E0));
#218=AXIS2_PLACEMENT_3D('',#215,#216,#217);
#220=CARTESIAN_POINT('',(0.E0,0.E0,5.85E0));
#221=DIRECTION('',(0.E0,0.E0,1.E0));
#222=DIRECTION('',(-1.E0,0.E0,0.E0));
#223=AXIS2_PLACEMENT_3D('',#220,#221,#222);
#225=CARTESIAN_POINT('',(6.35E0,1.146881727401E-14,6.35E0));
#226=CARTESIAN_POINT('',(-6.35E0,1.380176942639E-14,6.35E0));
#227=VERTEX_POINT('',#225);
#228=VERTEX_POINT('',#226);
#229=CARTESIAN_POINT('',(-6.35E0,1.332267629550E-14,5.55E0));
#230=CARTESIAN_POINT('',(6.35E0,1.194791040490E-14,5.55E0));
#231=VERTEX_POINT('',#229);
#232=VERTEX_POINT('',#230);
#233=CARTESIAN_POINT('',(3.25E0,0.E0,5.85E0));
#234=CARTESIAN_POINT('',(-3.25E0,0.E0,5.85E0));
#235=VERTEX_POINT('',#233);
#236=VERTEX_POINT('',#234);
#237=CARTESIAN_POINT('',(3.25E0,0.E0,6.35E0));
#238=CARTESIAN_POINT('',(-3.25E0,0.E0,6.35E0));
#239=VERTEX_POINT('',#237);
#240=VERTEX_POINT('',#238);
#241=CARTESIAN_POINT('',(0.E0,0.E0,6.35E0));
#242=DIRECTION('',(0.E0,0.E0,1.E0));
#243=DIRECTION('',(1.E0,0.E0,0.E0));
#244=AXIS2_PLACEMENT_3D('',#241,#242,#243);
#245=PLANE('',#244);
#247=ORIENTED_EDGE('',*,*,#246,.F.);
#249=ORIENTED_EDGE('',*,*,#248,.F.);
#250=EDGE_LOOP('',(#247,#249));
#251=FACE_OUTER_BOUND('',#250,.F.);
#253=ORIENTED_EDGE('',*,*,#252,.T.);
#255=ORIENTED_EDGE('',*,*,#254,.T.);
#256=EDGE_LOOP('',(#253,#255));
#257=FACE_BOUND('',#256,.F.);
#259=CARTESIAN_POINT('',(0.E0,1.224646799147E-14,-6.35E0));
#260=DIRECTION('',(0.E0,0.E0,1.E0));
#261=DIRECTION('',(1.E0,0.E0,0.E0));
#262=AXIS2_PLACEMENT_3D('',#259,#260,#261);
#263=CYLINDRICAL_SURFACE('',#262,6.35E0);
#265=ORIENTED_EDGE('',*,*,#264,.T.);
#267=ORIENTED_EDGE('',*,*,#266,.T.);
#268=ORIENTED_EDGE('',*,*,#246,.T.);
#270=ORIENTED_EDGE('',*,*,#269,.F.);
#271=EDGE_LOOP('',(#265,#267,#268,#270));
#272=FACE_OUTER_BOUND('',#271,.F.);
#274=CARTESIAN_POINT('',(-7.62E0,6.35E0,5.55E0));
#275=DIRECTION('',(0.E0,0.E0,1.E0));
#276=DIRECTION('',(0.E0,-1.E0,0.E0));
#277=AXIS2_PLACEMENT_3D('',#274,#275,#276);
#278=PLANE('',#277);
#279=ORIENTED_EDGE('',*,*,#264,.F.);
#281=ORIENTED_EDGE('',*,*,#280,.F.);
#282=EDGE_LOOP('',(#279,#281));
#283=FACE_OUTER_BOUND('',#282,.F.);
#285=CARTESIAN_POINT('',(0.E0,1.224646799147E-14,-6.35E0));
#286=DIRECTION('',(0.E0,0.E0,1.E0));
#287=DIRECTION('',(1.E0,0.E0,0.E0));
#288=AXIS2_PLACEMENT_3D('',#285,#286,#287);
#289=CYLINDRICAL_SURFACE('',#288,6.35E0);
#290=ORIENTED_EDGE('',*,*,#280,.T.);
#291=ORIENTED_EDGE('',*,*,#269,.T.);
#292=ORIENTED_EDGE('',*,*,#248,.T.);
#293=ORIENTED_EDGE('',*,*,#266,.F.);
#294=EDGE_LOOP('',(#290,#291,#292,#293));
#295=FACE_OUTER_BOUND('',#294,.F.);
#297=CARTESIAN_POINT('',(0.E0,0.E0,6.35E0));
#298=DIRECTION('',(0.E0,0.E0,1.E0));
#299=DIRECTION('',(1.E0,0.E0,0.E0));
#300=AXIS2_PLACEMENT_3D('',#297,#298,#299);
#301=CYLINDRICAL_SURFACE('',#300,3.25E0);
#302=ORIENTED_EDGE('',*,*,#252,.F.);
#304=ORIENTED_EDGE('',*,*,#303,.T.);
#306=ORIENTED_EDGE('',*,*,#305,.T.);
#308=ORIENTED_EDGE('',*,*,#307,.F.);
#309=EDGE_LOOP('',(#302,#304,#306,#308));
#310=FACE_OUTER_BOUND('',#309,.F.);
#312=CARTESIAN_POINT('',(0.E0,0.E0,6.35E0));
#313=DIRECTION('',(0.E0,0.E0,1.E0));
#314=DIRECTION('',(1.E0,0.E0,0.E0));
#315=AXIS2_PLACEMENT_3D('',#312,#313,#314);
#316=CYLINDRICAL_SURFACE('',#315,3.25E0);
#317=ORIENTED_EDGE('',*,*,#254,.F.);
#318=ORIENTED_EDGE('',*,*,#307,.T.);
#320=ORIENTED_EDGE('',*,*,#319,.T.);
#321=ORIENTED_EDGE('',*,*,#303,.F.);
#322=EDGE_LOOP('',(#317,#318,#320,#321));
#323=FACE_OUTER_BOUND('',#322,.F.);
#325=CARTESIAN_POINT('',(0.E0,0.E0,5.85E0));
#326=DIRECTION('',(0.E0,0.E0,1.E0));
#327=DIRECTION('',(1.E0,0.E0,0.E0));
#328=AXIS2_PLACEMENT_3D('',#325,#326,#327);
#329=PLANE('',#328);
#330=ORIENTED_EDGE('',*,*,#305,.F.);
#331=ORIENTED_EDGE('',*,*,#319,.F.);
#332=EDGE_LOOP('',(#330,#331));
#333=FACE_OUTER_BOUND('',#332,.F.);
#335=CLOSED_SHELL('',(#258,#273,#284,#296,#311,#324,#334));
#336=MANIFOLD_SOLID_BREP('',#335);
#337=CARTESIAN_POINT('',(0.E0,1.224646799147E-14,-5.54E0));
#338=DIRECTION('',(0.E0,0.E0,-1.E0));
#339=DIRECTION('',(-1.E0,0.E0,0.E0));
#340=AXIS2_PLACEMENT_3D('',#337,#338,#339);
#342=DIRECTION('',(0.E0,0.E0,1.E0));
#343=VECTOR('',#342,1.108E1);
#344=CARTESIAN_POINT('',(6.35E0,1.123543442889E-14,-5.54E0));
#345=LINE('',#344,#343);
#346=CARTESIAN_POINT('',(0.E0,1.224646799147E-14,5.54E0));
#347=DIRECTION('',(0.E0,0.E0,1.E0));
#348=DIRECTION('',(1.E0,0.E0,0.E0));
#349=AXIS2_PLACEMENT_3D('',#346,#347,#348);
#351=CARTESIAN_POINT('',(0.E0,1.224646799147E-14,-5.54E0));
#352=DIRECTION('',(0.E0,0.E0,-1.E0));
#353=DIRECTION('',(1.E0,0.E0,0.E0));
#354=AXIS2_PLACEMENT_3D('',#351,#352,#353);
#356=DIRECTION('',(0.E0,0.E0,1.E0));
#357=VECTOR('',#356,1.108E1);
#358=CARTESIAN_POINT('',(-6.35E0,1.312363790446E-14,-5.54E0));
#359=LINE('',#358,#357);
#360=CARTESIAN_POINT('',(0.E0,1.224646799147E-14,5.54E0));
#361=DIRECTION('',(0.E0,0.E0,1.E0));
#362=DIRECTION('',(-1.E0,0.E0,0.E0));
#363=AXIS2_PLACEMENT_3D('',#360,#361,#362);
#365=CARTESIAN_POINT('',(-6.35E0,1.332267629550E-14,-5.54E0));
#366=CARTESIAN_POINT('',(6.35E0,1.194791040490E-14,-5.54E0));
#367=VERTEX_POINT('',#365);
#368=VERTEX_POINT('',#366);
#369=CARTESIAN_POINT('',(6.35E0,1.154631945610E-14,5.54E0));
#370=CARTESIAN_POINT('',(-6.35E0,1.372426724430E-14,5.54E0));
#371=VERTEX_POINT('',#369);
#372=VERTEX_POINT('',#370);
#373=CARTESIAN_POINT('',(0.E0,1.224646799147E-14,-6.35E0));
#374=DIRECTION('',(0.E0,0.E0,1.E0));
#375=DIRECTION('',(1.E0,0.E0,0.E0));
#376=AXIS2_PLACEMENT_3D('',#373,#374,#375);
#377=CYLINDRICAL_SURFACE('',#376,6.35E0);
#379=ORIENTED_EDGE('',*,*,#378,.T.);
#381=ORIENTED_EDGE('',*,*,#380,.T.);
#383=ORIENTED_EDGE('',*,*,#382,.T.);
#385=ORIENTED_EDGE('',*,*,#384,.F.);
#386=EDGE_LOOP('',(#379,#381,#383,#385));
#387=FACE_OUTER_BOUND('',#386,.F.);
#389=CARTESIAN_POINT('',(-7.62E0,6.35E0,-5.54E0));
#390=DIRECTION('',(0.E0,0.E0,1.E0));
#391=DIRECTION('',(0.E0,-1.E0,0.E0));
#392=AXIS2_PLACEMENT_3D('',#389,#390,#391);
#393=PLANE('',#392);
#394=ORIENTED_EDGE('',*,*,#378,.F.);
#396=ORIENTED_EDGE('',*,*,#395,.F.);
#397=EDGE_LOOP('',(#394,#396));
#398=FACE_OUTER_BOUND('',#397,.F.);
#400=CARTESIAN_POINT('',(0.E0,1.224646799147E-14,-6.35E0));
#401=DIRECTION('',(0.E0,0.E0,1.E0));
#402=DIRECTION('',(1.E0,0.E0,0.E0));
#403=AXIS2_PLACEMENT_3D('',#400,#401,#402);
#404=CYLINDRICAL_SURFACE('',#403,6.35E0);
#405=ORIENTED_EDGE('',*,*,#395,.T.);
#406=ORIENTED_EDGE('',*,*,#384,.T.);
#408=ORIENTED_EDGE('',*,*,#407,.T.);
#409=ORIENTED_EDGE('',*,*,#380,.F.);
#410=EDGE_LOOP('',(#405,#406,#408,#409));
#411=FACE_OUTER_BOUND('',#410,.F.);
#413=CARTESIAN_POINT('',(-7.62E0,-6.35E0,5.54E0));
#414=DIRECTION('',(0.E0,0.E0,-1.E0));
#415=DIRECTION('',(0.E0,1.E0,0.E0));
#416=AXIS2_PLACEMENT_3D('',#413,#414,#415);
#417=PLANE('',#416);
#418=ORIENTED_EDGE('',*,*,#382,.F.);
#419=ORIENTED_EDGE('',*,*,#407,.F.);
#420=EDGE_LOOP('',(#418,#419));
#421=FACE_OUTER_BOUND('',#420,.F.);
#423=CLOSED_SHELL('',(#388,#399,#412,#422));
#424=MANIFOLD_SOLID_BREP('',#423);
#426=DIMENSIONAL_EXPONENTS(0.E0,0.E0,0.E0,0.E0,0.E0,0.E0,0.E0);
#428=PLANE_ANGLE_MEASURE_WITH_UNIT(PLANE_ANGLE_MEASURE(1.745329251994E-2),#427);
#429=(CONVERSION_BASED_UNIT('DEGREE',#428)NAMED_UNIT(*)PLANE_ANGLE_UNIT());
#431=UNCERTAINTY_MEASURE_WITH_UNIT(LENGTH_MEASURE(9.166099473401E-4),#425,
'closure',
'Maximum model space distance between geometric entities at asserted connectivities');
#434=APPLICATION_CONTEXT(
'CONFIGURATION CONTROLLED 3D DESIGNS OF MECHANICAL PARTS AND ASSEMBLIES');
#435=APPLICATION_PROTOCOL_DEFINITION('international standard',
'config_control_design',1994,#434);
#436=DESIGN_CONTEXT('',#434,'design');
#437=MECHANICAL_CONTEXT('',#434,'mechanical');
#438=PRODUCT('2047-XX-A','2047-XX-A','NOT SPECIFIED',(#437));
#439=PRODUCT_DEFINITION_FORMATION_WITH_SPECIFIED_SOURCE('2','LAST_VERSION',#438,
.MADE.);
#443=PRODUCT_CATEGORY('part','');
#444=PRODUCT_RELATED_PRODUCT_CATEGORY('detail','',(#438));
#445=PRODUCT_CATEGORY_RELATIONSHIP('','',#443,#444);
#446=SECURITY_CLASSIFICATION_LEVEL('unclassified');
#447=SECURITY_CLASSIFICATION('','',#446);
#448=CC_DESIGN_SECURITY_CLASSIFICATION(#447,(#439));
#449=APPROVAL_STATUS('approved');
#450=APPROVAL(#449,'');
#451=CC_DESIGN_APPROVAL(#450,(#447,#439,#440));
#452=CALENDAR_DATE(112,30,7);
#453=COORDINATED_UNIVERSAL_TIME_OFFSET(7,0,.BEHIND.);
#454=LOCAL_TIME(16,21,5.3E1,#453);
#455=DATE_AND_TIME(#452,#454);
#456=APPROVAL_DATE_TIME(#455,#450);
#457=DATE_TIME_ROLE('creation_date');
#458=CC_DESIGN_DATE_AND_TIME_ASSIGNMENT(#455,#457,(#440));
#459=DATE_TIME_ROLE('classification_date');
#460=CC_DESIGN_DATE_AND_TIME_ASSIGNMENT(#455,#459,(#447));
#461=PERSON('UNSPECIFIED','UNSPECIFIED',$,$,$,$);
#462=ORGANIZATION('UNSPECIFIED','UNSPECIFIED','UNSPECIFIED');
#463=PERSON_AND_ORGANIZATION(#461,#462);
#464=APPROVAL_ROLE('approver');
#465=APPROVAL_PERSON_ORGANIZATION(#463,#450,#464);
#466=PERSON_AND_ORGANIZATION_ROLE('creator');
#467=CC_DESIGN_PERSON_AND_ORGANIZATION_ASSIGNMENT(#463,#466,(#439,#440));
#468=PERSON_AND_ORGANIZATION_ROLE('design_supplier');
#469=CC_DESIGN_PERSON_AND_ORGANIZATION_ASSIGNMENT(#463,#468,(#439));
#470=PERSON_AND_ORGANIZATION_ROLE('classification_officer');
#471=CC_DESIGN_PERSON_AND_ORGANIZATION_ASSIGNMENT(#463,#470,(#447));
#472=PERSON_AND_ORGANIZATION_ROLE('design_owner');
#473=CC_DESIGN_PERSON_AND_ORGANIZATION_ASSIGNMENT(#463,#472,(#438));
#5=CIRCLE('',#4,6.35E0);
#10=CIRCLE('',#9,6.35E0);
#15=CIRCLE('',#14,3.25E0);
#20=CIRCLE('',#19,3.25E0);
#25=CIRCLE('',#24,6.35E0);
#34=CIRCLE('',#33,6.35E0);
#51=CIRCLE('',#50,3.25E0);
#56=CIRCLE('',#55,3.25E0);
#78=EDGE_CURVE('',#59,#60,#5,.T.);
#80=EDGE_CURVE('',#60,#59,#10,.T.);
#84=EDGE_CURVE('',#71,#72,#15,.T.);
#86=EDGE_CURVE('',#72,#71,#20,.T.);
#90=ADVANCED_FACE('',(#83,#89),#77,.F.);
#96=EDGE_CURVE('',#63,#64,#25,.T.);
#98=EDGE_CURVE('',#60,#64,#38,.T.);
#101=EDGE_CURVE('',#59,#63,#29,.T.);
#105=ADVANCED_FACE('',(#104),#95,.T.);
#112=EDGE_CURVE('',#64,#63,#34,.T.);
#116=ADVANCED_FACE('',(#115),#110,.F.);
#128=ADVANCED_FACE('',(#127),#121,.T.);
#135=EDGE_CURVE('',#71,#67,#42,.T.);
#137=EDGE_CURVE('',#67,#68,#51,.T.);
#139=EDGE_CURVE('',#72,#68,#46,.T.);
#143=ADVANCED_FACE('',(#142),#133,.F.);
#151=EDGE_CURVE('',#68,#67,#56,.T.);
#156=ADVANCED_FACE('',(#155),#148,.F.);
#166=ADVANCED_FACE('',(#165),#161,.T.);
#173=CIRCLE('',#172,6.35E0);
#178=CIRCLE('',#177,6.35E0);
#183=CIRCLE('',#182,3.25E0);
#188=CIRCLE('',#187,3.25E0);
#193=CIRCLE('',#192,6.35E0);
#202=CIRCLE('',#201,6.35E0);
#219=CIRCLE('',#218,3.25E0);
#224=CIRCLE('',#223,3.25E0);
#246=EDGE_CURVE('',#227,#228,#173,.T.);
#248=EDGE_CURVE('',#228,#227,#178,.T.);
#252=EDGE_CURVE('',#239,#240,#183,.T.);
#254=EDGE_CURVE('',#240,#239,#188,.T.);
#258=ADVANCED_FACE('',(#251,#257),#245,.T.);
#264=EDGE_CURVE('',#231,#232,#193,.T.);
#266=EDGE_CURVE('',#232,#227,#197,.T.);
#269=EDGE_CURVE('',#231,#228,#206,.T.);
#273=ADVANCED_FACE('',(#272),#263,.T.);
#280=EDGE_CURVE('',#232,#231,#202,.T.);
#284=ADVANCED_FACE('',(#283),#278,.F.);
#296=ADVANCED_FACE('',(#295),#289,.T.);
#303=EDGE_CURVE('',#239,#235,#210,.T.);
#305=EDGE_CURVE('',#235,#236,#219,.T.);
#307=EDGE_CURVE('',#240,#236,#214,.T.);
#311=ADVANCED_FACE('',(#310),#301,.F.);
#319=EDGE_CURVE('',#236,#235,#224,.T.);
#324=ADVANCED_FACE('',(#323),#316,.F.);
#334=ADVANCED_FACE('',(#333),#329,.T.);
#341=CIRCLE('',#340,6.35E0);
#350=CIRCLE('',#349,6.35E0);
#355=CIRCLE('',#354,6.35E0);
#364=CIRCLE('',#363,6.35E0);
#378=EDGE_CURVE('',#367,#368,#341,.T.);
#380=EDGE_CURVE('',#368,#371,#345,.T.);
#382=EDGE_CURVE('',#371,#372,#350,.T.);
#384=EDGE_CURVE('',#367,#372,#359,.T.);
#388=ADVANCED_FACE('',(#387),#377,.T.);
#395=EDGE_CURVE('',#368,#367,#355,.T.);
#399=ADVANCED_FACE('',(#398),#393,.F.);
#407=EDGE_CURVE('',#372,#371,#364,.T.);
#412=ADVANCED_FACE('',(#411),#404,.T.);
#422=ADVANCED_FACE('',(#421),#417,.F.);
#425=(LENGTH_UNIT()NAMED_UNIT(*)SI_UNIT(.MILLI.,.METRE.));
#427=(NAMED_UNIT(*)PLANE_ANGLE_UNIT()SI_UNIT($,.RADIAN.));
#430=(NAMED_UNIT(*)SI_UNIT($,.STERADIAN.)SOLID_ANGLE_UNIT());
#432=(GEOMETRIC_REPRESENTATION_CONTEXT(3)GLOBAL_UNCERTAINTY_ASSIGNED_CONTEXT((
#431))GLOBAL_UNIT_ASSIGNED_CONTEXT((#425,#429,#430))REPRESENTATION_CONTEXT
('ID1','3'));
#433=ADVANCED_BREP_SHAPE_REPRESENTATION('',(#168,#336,#424),#432);
#440=PRODUCT_DEFINITION('design','',#439,#436);
#441=PRODUCT_DEFINITION_SHAPE('','SHAPE FOR 2047-XX-A.',#440);
#442=SHAPE_DEFINITION_REPRESENTATION(#441,#433);
ENDSEC;
END-ISO-10303-21;
