ISO-10303-21;
HEADER;
FILE_DESCRIPTION((''),'2;1');
FILE_NAME('2035-XX-A1','2012-07-30T',('ryans'),('Bourns, Inc.'),
'PRO/ENGINEER BY PARAMETRIC TECHNOLOGY CORPORATION, 2010100',
'PRO/ENGINEER BY PARAMETRIC TECHNOLOGY CORPORATION, 2010100','');
FILE_SCHEMA(('CONFIG_CONTROL_DESIGN'));
ENDSEC;
DATA;
#1=CARTESIAN_POINT('',(0.E0,0.E0,1.224646799147E-14));
#2=DIRECTION('',(1.E0,0.E0,0.E0));
#3=DIRECTION('',(0.E0,-1.E0,0.E0));
#4=AXIS2_PLACEMENT_3D('',#1,#2,#3);
#6=CARTESIAN_POINT('',(0.E0,0.E0,1.224646799147E-14));
#7=DIRECTION('',(1.E0,0.E0,0.E0));
#8=DIRECTION('',(0.E0,1.E0,0.E0));
#9=AXIS2_PLACEMENT_3D('',#6,#7,#8);
#11=CARTESIAN_POINT('',(0.E0,0.E0,0.E0));
#12=DIRECTION('',(-1.E0,0.E0,0.E0));
#13=DIRECTION('',(0.E0,0.E0,-1.E0));
#14=AXIS2_PLACEMENT_3D('',#11,#12,#13);
#16=CARTESIAN_POINT('',(0.E0,0.E0,0.E0));
#17=DIRECTION('',(-1.E0,0.E0,0.E0));
#18=DIRECTION('',(0.E0,0.E0,1.E0));
#19=AXIS2_PLACEMENT_3D('',#16,#17,#18);
#21=CARTESIAN_POINT('',(5.E-1,0.E0,1.224646799147E-14));
#22=DIRECTION('',(1.E0,0.E0,0.E0));
#23=DIRECTION('',(0.E0,-1.E0,0.E0));
#24=AXIS2_PLACEMENT_3D('',#21,#22,#23);
#26=DIRECTION('',(1.E0,0.E0,0.E0));
#27=VECTOR('',#26,5.E-1);
#28=CARTESIAN_POINT('',(0.E0,-2.5E0,1.255262969126E-14));
#29=LINE('',#28,#27);
#30=CARTESIAN_POINT('',(5.E-1,0.E0,0.E0));
#31=DIRECTION('',(-1.E0,0.E0,0.E0));
#32=DIRECTION('',(0.E0,0.E0,-1.E0));
#33=AXIS2_PLACEMENT_3D('',#30,#31,#32);
#35=CARTESIAN_POINT('',(5.E-1,0.E0,0.E0));
#36=DIRECTION('',(-1.E0,0.E0,0.E0));
#37=DIRECTION('',(0.E0,0.E0,1.E0));
#38=AXIS2_PLACEMENT_3D('',#35,#36,#37);
#40=CARTESIAN_POINT('',(5.E-1,0.E0,1.224646799147E-14));
#41=DIRECTION('',(1.E0,0.E0,0.E0));
#42=DIRECTION('',(0.E0,1.E0,0.E0));
#43=AXIS2_PLACEMENT_3D('',#40,#41,#42);
#45=DIRECTION('',(1.E0,0.E0,0.E0));
#46=VECTOR('',#45,5.E-1);
#47=CARTESIAN_POINT('',(0.E0,2.5E0,1.194030629169E-14));
#48=LINE('',#47,#46);
#49=DIRECTION('',(1.E0,0.E0,0.E0));
#50=VECTOR('',#49,5.E-1);
#51=CARTESIAN_POINT('',(0.E0,0.E0,-1.25E0));
#52=LINE('',#51,#50);
#53=DIRECTION('',(1.E0,0.E0,0.E0));
#54=VECTOR('',#53,5.E-1);
#55=CARTESIAN_POINT('',(0.E0,0.E0,1.25E0));
#56=LINE('',#55,#54);
#57=CARTESIAN_POINT('',(0.E0,-2.5E0,1.255262969126E-14));
#58=CARTESIAN_POINT('',(0.E0,2.5E0,1.163414459190E-14));
#59=VERTEX_POINT('',#57);
#60=VERTEX_POINT('',#58);
#61=CARTESIAN_POINT('',(5.E-1,-2.5E0,1.287858708565E-14));
#62=CARTESIAN_POINT('',(5.E-1,2.5E0,1.130818719751E-14));
#63=VERTEX_POINT('',#61);
#64=VERTEX_POINT('',#62);
#65=CARTESIAN_POINT('',(0.E0,0.E0,-1.25E0));
#66=CARTESIAN_POINT('',(0.E0,0.E0,1.25E0));
#67=VERTEX_POINT('',#65);
#68=VERTEX_POINT('',#66);
#69=CARTESIAN_POINT('',(5.E-1,0.E0,-1.25E0));
#70=CARTESIAN_POINT('',(5.E-1,0.E0,1.25E0));
#71=VERTEX_POINT('',#69);
#72=VERTEX_POINT('',#70);
#73=CARTESIAN_POINT('',(0.E0,0.E0,0.E0));
#74=DIRECTION('',(1.E0,0.E0,0.E0));
#75=DIRECTION('',(0.E0,-1.E0,0.E0));
#76=AXIS2_PLACEMENT_3D('',#73,#74,#75);
#77=PLANE('',#76);
#79=ORIENTED_EDGE('',*,*,#78,.T.);
#81=ORIENTED_EDGE('',*,*,#80,.T.);
#82=EDGE_LOOP('',(#79,#81));
#83=FACE_OUTER_BOUND('',#82,.F.);
#85=ORIENTED_EDGE('',*,*,#84,.T.);
#87=ORIENTED_EDGE('',*,*,#86,.T.);
#88=EDGE_LOOP('',(#85,#87));
#89=FACE_BOUND('',#88,.F.);
#91=CARTESIAN_POINT('',(0.E0,0.E0,1.224646799147E-14));
#92=DIRECTION('',(1.E0,0.E0,0.E0));
#93=DIRECTION('',(0.E0,-1.E0,0.E0));
#94=AXIS2_PLACEMENT_3D('',#91,#92,#93);
#95=CYLINDRICAL_SURFACE('',#94,2.5E0);
#97=ORIENTED_EDGE('',*,*,#96,.T.);
#99=ORIENTED_EDGE('',*,*,#98,.F.);
#100=ORIENTED_EDGE('',*,*,#78,.F.);
#102=ORIENTED_EDGE('',*,*,#101,.T.);
#103=EDGE_LOOP('',(#97,#99,#100,#102));
#104=FACE_OUTER_BOUND('',#103,.F.);
#106=CARTESIAN_POINT('',(5.E-1,-3.E0,-2.5E0));
#107=DIRECTION('',(-1.E0,0.E0,0.E0));
#108=DIRECTION('',(0.E0,0.E0,1.E0));
#109=AXIS2_PLACEMENT_3D('',#106,#107,#108);
#110=PLANE('',#109);
#111=ORIENTED_EDGE('',*,*,#96,.F.);
#113=ORIENTED_EDGE('',*,*,#112,.F.);
#114=EDGE_LOOP('',(#111,#113));
#115=FACE_OUTER_BOUND('',#114,.F.);
#117=ORIENTED_EDGE('',*,*,#116,.F.);
#119=ORIENTED_EDGE('',*,*,#118,.F.);
#120=EDGE_LOOP('',(#117,#119));
#121=FACE_BOUND('',#120,.F.);
#123=CARTESIAN_POINT('',(0.E0,0.E0,1.224646799147E-14));
#124=DIRECTION('',(1.E0,0.E0,0.E0));
#125=DIRECTION('',(0.E0,-1.E0,0.E0));
#126=AXIS2_PLACEMENT_3D('',#123,#124,#125);
#127=CYLINDRICAL_SURFACE('',#126,2.5E0);
#128=ORIENTED_EDGE('',*,*,#112,.T.);
#129=ORIENTED_EDGE('',*,*,#101,.F.);
#130=ORIENTED_EDGE('',*,*,#80,.F.);
#131=ORIENTED_EDGE('',*,*,#98,.T.);
#132=EDGE_LOOP('',(#128,#129,#130,#131));
#133=FACE_OUTER_BOUND('',#132,.F.);
#135=CARTESIAN_POINT('',(0.E0,0.E0,0.E0));
#136=DIRECTION('',(-1.E0,0.E0,0.E0));
#137=DIRECTION('',(0.E0,0.E0,-1.E0));
#138=AXIS2_PLACEMENT_3D('',#135,#136,#137);
#139=CYLINDRICAL_SURFACE('',#138,1.25E0);
#140=ORIENTED_EDGE('',*,*,#84,.F.);
#142=ORIENTED_EDGE('',*,*,#141,.T.);
#143=ORIENTED_EDGE('',*,*,#116,.T.);
#145=ORIENTED_EDGE('',*,*,#144,.F.);
#146=EDGE_LOOP('',(#140,#142,#143,#145));
#147=FACE_OUTER_BOUND('',#146,.F.);
#149=CARTESIAN_POINT('',(0.E0,0.E0,0.E0));
#150=DIRECTION('',(-1.E0,0.E0,0.E0));
#151=DIRECTION('',(0.E0,0.E0,-1.E0));
#152=AXIS2_PLACEMENT_3D('',#149,#150,#151);
#153=CYLINDRICAL_SURFACE('',#152,1.25E0);
#154=ORIENTED_EDGE('',*,*,#86,.F.);
#155=ORIENTED_EDGE('',*,*,#144,.T.);
#156=ORIENTED_EDGE('',*,*,#118,.T.);
#157=ORIENTED_EDGE('',*,*,#141,.F.);
#158=EDGE_LOOP('',(#154,#155,#156,#157));
#159=FACE_OUTER_BOUND('',#158,.F.);
#161=CLOSED_SHELL('',(#90,#105,#122,#134,#148,#160));
#162=MANIFOLD_SOLID_BREP('',#161);
#163=CARTESIAN_POINT('',(4.1E0,0.E0,1.224646799147E-14));
#164=DIRECTION('',(1.E0,0.E0,0.E0));
#165=DIRECTION('',(0.E0,-1.E0,0.E0));
#166=AXIS2_PLACEMENT_3D('',#163,#164,#165);
#168=CARTESIAN_POINT('',(4.1E0,0.E0,1.224646799147E-14));
#169=DIRECTION('',(1.E0,0.E0,0.E0));
#170=DIRECTION('',(0.E0,1.E0,0.E0));
#171=AXIS2_PLACEMENT_3D('',#168,#169,#170);
#173=CARTESIAN_POINT('',(4.1E0,0.E0,0.E0));
#174=DIRECTION('',(1.E0,0.E0,0.E0));
#175=DIRECTION('',(0.E0,-1.E0,0.E0));
#176=AXIS2_PLACEMENT_3D('',#173,#174,#175);
#178=CARTESIAN_POINT('',(4.1E0,0.E0,0.E0));
#179=DIRECTION('',(1.E0,0.E0,0.E0));
#180=DIRECTION('',(0.E0,1.E0,0.E0));
#181=AXIS2_PLACEMENT_3D('',#178,#179,#180);
#183=CARTESIAN_POINT('',(3.6E0,0.E0,1.224646799147E-14));
#184=DIRECTION('',(-1.E0,0.E0,0.E0));
#185=DIRECTION('',(0.E0,1.E0,0.E0));
#186=AXIS2_PLACEMENT_3D('',#183,#184,#185);
#188=DIRECTION('',(1.E0,0.E0,0.E0));
#189=VECTOR('',#188,5.E-1);
#190=CARTESIAN_POINT('',(3.6E0,-2.5E0,1.276333605599E-14));
#191=LINE('',#190,#189);
#192=CARTESIAN_POINT('',(3.6E0,0.E0,0.E0));
#193=DIRECTION('',(1.E0,0.E0,0.E0));
#194=DIRECTION('',(0.E0,-1.E0,0.E0));
#195=AXIS2_PLACEMENT_3D('',#192,#193,#194);
#197=CARTESIAN_POINT('',(3.6E0,0.E0,0.E0));
#198=DIRECTION('',(1.E0,0.E0,0.E0));
#199=DIRECTION('',(0.E0,1.E0,0.E0));
#200=AXIS2_PLACEMENT_3D('',#197,#198,#199);
#202=CARTESIAN_POINT('',(3.6E0,0.E0,1.224646799147E-14));
#203=DIRECTION('',(-1.E0,0.E0,0.E0));
#204=DIRECTION('',(0.E0,-1.E0,0.E0));
#205=AXIS2_PLACEMENT_3D('',#202,#203,#204);
#207=DIRECTION('',(1.E0,0.E0,0.E0));
#208=VECTOR('',#207,5.E-1);
#209=CARTESIAN_POINT('',(3.6E0,2.5E0,1.195700708311E-14));
#210=LINE('',#209,#208);
#211=DIRECTION('',(-1.E0,0.E0,0.E0));
#212=VECTOR('',#211,5.E-1);
#213=CARTESIAN_POINT('',(4.1E0,-1.25E0,0.E0));
#214=LINE('',#213,#212);
#215=DIRECTION('',(-1.E0,0.E0,0.E0));
#216=VECTOR('',#215,5.E-1);
#217=CARTESIAN_POINT('',(4.1E0,1.25E0,0.E0));
#218=LINE('',#217,#216);
#219=CARTESIAN_POINT('',(4.1E0,-2.5E0,1.255262969126E-14));
#220=CARTESIAN_POINT('',(4.1E0,2.5E0,1.163414459190E-14));
#221=VERTEX_POINT('',#219);
#222=VERTEX_POINT('',#220);
#223=CARTESIAN_POINT('',(3.6E0,2.5E0,1.199040866595E-14));
#224=CARTESIAN_POINT('',(3.6E0,-2.5E0,1.219636561721E-14));
#225=VERTEX_POINT('',#223);
#226=VERTEX_POINT('',#224);
#227=CARTESIAN_POINT('',(4.1E0,-1.25E0,0.E0));
#228=CARTESIAN_POINT('',(4.1E0,1.25E0,0.E0));
#229=VERTEX_POINT('',#227);
#230=VERTEX_POINT('',#228);
#231=CARTESIAN_POINT('',(3.6E0,-1.25E0,0.E0));
#232=CARTESIAN_POINT('',(3.6E0,1.25E0,0.E0));
#233=VERTEX_POINT('',#231);
#234=VERTEX_POINT('',#232);
#235=CARTESIAN_POINT('',(4.1E0,0.E0,0.E0));
#236=DIRECTION('',(1.E0,0.E0,0.E0));
#237=DIRECTION('',(0.E0,-1.E0,0.E0));
#238=AXIS2_PLACEMENT_3D('',#235,#236,#237);
#239=PLANE('',#238);
#241=ORIENTED_EDGE('',*,*,#240,.F.);
#243=ORIENTED_EDGE('',*,*,#242,.F.);
#244=EDGE_LOOP('',(#241,#243));
#245=FACE_OUTER_BOUND('',#244,.F.);
#247=ORIENTED_EDGE('',*,*,#246,.T.);
#249=ORIENTED_EDGE('',*,*,#248,.T.);
#250=EDGE_LOOP('',(#247,#249));
#251=FACE_BOUND('',#250,.F.);
#253=CARTESIAN_POINT('',(0.E0,0.E0,1.224646799147E-14));
#254=DIRECTION('',(1.E0,0.E0,0.E0));
#255=DIRECTION('',(0.E0,-1.E0,0.E0));
#256=AXIS2_PLACEMENT_3D('',#253,#254,#255);
#257=CYLINDRICAL_SURFACE('',#256,2.5E0);
#259=ORIENTED_EDGE('',*,*,#258,.T.);
#261=ORIENTED_EDGE('',*,*,#260,.T.);
#262=ORIENTED_EDGE('',*,*,#240,.T.);
#264=ORIENTED_EDGE('',*,*,#263,.F.);
#265=EDGE_LOOP('',(#259,#261,#262,#264));
#266=FACE_OUTER_BOUND('',#265,.F.);
#268=CARTESIAN_POINT('',(3.6E0,-3.E0,2.5E0));
#269=DIRECTION('',(1.E0,0.E0,0.E0));
#270=DIRECTION('',(0.E0,0.E0,-1.E0));
#271=AXIS2_PLACEMENT_3D('',#268,#269,#270);
#272=PLANE('',#271);
#273=ORIENTED_EDGE('',*,*,#258,.F.);
#275=ORIENTED_EDGE('',*,*,#274,.F.);
#276=EDGE_LOOP('',(#273,#275));
#277=FACE_OUTER_BOUND('',#276,.F.);
#279=ORIENTED_EDGE('',*,*,#278,.F.);
#281=ORIENTED_EDGE('',*,*,#280,.F.);
#282=EDGE_LOOP('',(#279,#281));
#283=FACE_BOUND('',#282,.F.);
#285=CARTESIAN_POINT('',(0.E0,0.E0,1.224646799147E-14));
#286=DIRECTION('',(1.E0,0.E0,0.E0));
#287=DIRECTION('',(0.E0,-1.E0,0.E0));
#288=AXIS2_PLACEMENT_3D('',#285,#286,#287);
#289=CYLINDRICAL_SURFACE('',#288,2.5E0);
#290=ORIENTED_EDGE('',*,*,#274,.T.);
#291=ORIENTED_EDGE('',*,*,#263,.T.);
#292=ORIENTED_EDGE('',*,*,#242,.T.);
#293=ORIENTED_EDGE('',*,*,#260,.F.);
#294=EDGE_LOOP('',(#290,#291,#292,#293));
#295=FACE_OUTER_BOUND('',#294,.F.);
#297=CARTESIAN_POINT('',(4.1E0,0.E0,0.E0));
#298=DIRECTION('',(1.E0,0.E0,0.E0));
#299=DIRECTION('',(0.E0,-1.E0,0.E0));
#300=AXIS2_PLACEMENT_3D('',#297,#298,#299);
#301=CYLINDRICAL_SURFACE('',#300,1.25E0);
#302=ORIENTED_EDGE('',*,*,#246,.F.);
#304=ORIENTED_EDGE('',*,*,#303,.T.);
#305=ORIENTED_EDGE('',*,*,#278,.T.);
#307=ORIENTED_EDGE('',*,*,#306,.F.);
#308=EDGE_LOOP('',(#302,#304,#305,#307));
#309=FACE_OUTER_BOUND('',#308,.F.);
#311=CARTESIAN_POINT('',(4.1E0,0.E0,0.E0));
#312=DIRECTION('',(1.E0,0.E0,0.E0));
#313=DIRECTION('',(0.E0,-1.E0,0.E0));
#314=AXIS2_PLACEMENT_3D('',#311,#312,#313);
#315=CYLINDRICAL_SURFACE('',#314,1.25E0);
#316=ORIENTED_EDGE('',*,*,#248,.F.);
#317=ORIENTED_EDGE('',*,*,#306,.T.);
#318=ORIENTED_EDGE('',*,*,#280,.T.);
#319=ORIENTED_EDGE('',*,*,#303,.F.);
#320=EDGE_LOOP('',(#316,#317,#318,#319));
#321=FACE_OUTER_BOUND('',#320,.F.);
#323=CLOSED_SHELL('',(#252,#267,#284,#296,#310,#322));
#324=MANIFOLD_SOLID_BREP('',#323);
#325=CARTESIAN_POINT('',(3.59E0,0.E0,1.224646799147E-14));
#326=DIRECTION('',(1.E0,0.E0,0.E0));
#327=DIRECTION('',(0.E0,-1.E0,0.E0));
#328=AXIS2_PLACEMENT_3D('',#325,#326,#327);
#330=CARTESIAN_POINT('',(5.1E-1,0.E0,1.224646799147E-14));
#331=DIRECTION('',(-1.E0,0.E0,0.E0));
#332=DIRECTION('',(0.E0,1.E0,0.E0));
#333=AXIS2_PLACEMENT_3D('',#330,#331,#332);
#335=DIRECTION('',(1.E0,0.E0,0.E0));
#336=VECTOR('',#335,3.08E0);
#337=CARTESIAN_POINT('',(5.1E-1,-2.5E0,1.276333605599E-14));
#338=LINE('',#337,#336);
#339=CARTESIAN_POINT('',(3.59E0,0.E0,1.224646799147E-14));
#340=DIRECTION('',(1.E0,0.E0,0.E0));
#341=DIRECTION('',(0.E0,1.E0,0.E0));
#342=AXIS2_PLACEMENT_3D('',#339,#340,#341);
#344=CARTESIAN_POINT('',(5.1E-1,0.E0,1.224646799147E-14));
#345=DIRECTION('',(-1.E0,0.E0,0.E0));
#346=DIRECTION('',(0.E0,-1.E0,0.E0));
#347=AXIS2_PLACEMENT_3D('',#344,#345,#346);
#349=DIRECTION('',(1.E0,0.E0,0.E0));
#350=VECTOR('',#349,3.08E0);
#351=CARTESIAN_POINT('',(5.1E-1,2.5E0,1.195700708311E-14));
#352=LINE('',#351,#350);
#353=CARTESIAN_POINT('',(3.59E0,-2.5E0,1.287858708565E-14));
#354=CARTESIAN_POINT('',(3.59E0,2.5E0,1.130818719751E-14));
#355=VERTEX_POINT('',#353);
#356=VERTEX_POINT('',#354);
#357=CARTESIAN_POINT('',(5.1E-1,2.5E0,1.199040866595E-14));
#358=CARTESIAN_POINT('',(5.1E-1,-2.5E0,1.219636561721E-14));
#359=VERTEX_POINT('',#357);
#360=VERTEX_POINT('',#358);
#361=CARTESIAN_POINT('',(0.E0,0.E0,1.224646799147E-14));
#362=DIRECTION('',(1.E0,0.E0,0.E0));
#363=DIRECTION('',(0.E0,-1.E0,0.E0));
#364=AXIS2_PLACEMENT_3D('',#361,#362,#363);
#365=CYLINDRICAL_SURFACE('',#364,2.5E0);
#367=ORIENTED_EDGE('',*,*,#366,.T.);
#369=ORIENTED_EDGE('',*,*,#368,.F.);
#371=ORIENTED_EDGE('',*,*,#370,.T.);
#373=ORIENTED_EDGE('',*,*,#372,.T.);
#374=EDGE_LOOP('',(#367,#369,#371,#373));
#375=FACE_OUTER_BOUND('',#374,.F.);
#377=CARTESIAN_POINT('',(3.59E0,-3.E0,-2.5E0));
#378=DIRECTION('',(-1.E0,0.E0,0.E0));
#379=DIRECTION('',(0.E0,0.E0,1.E0));
#380=AXIS2_PLACEMENT_3D('',#377,#378,#379);
#381=PLANE('',#380);
#382=ORIENTED_EDGE('',*,*,#366,.F.);
#384=ORIENTED_EDGE('',*,*,#383,.F.);
#385=EDGE_LOOP('',(#382,#384));
#386=FACE_OUTER_BOUND('',#385,.F.);
#388=CARTESIAN_POINT('',(0.E0,0.E0,1.224646799147E-14));
#389=DIRECTION('',(1.E0,0.E0,0.E0));
#390=DIRECTION('',(0.E0,-1.E0,0.E0));
#391=AXIS2_PLACEMENT_3D('',#388,#389,#390);
#392=CYLINDRICAL_SURFACE('',#391,2.5E0);
#393=ORIENTED_EDGE('',*,*,#383,.T.);
#394=ORIENTED_EDGE('',*,*,#372,.F.);
#396=ORIENTED_EDGE('',*,*,#395,.T.);
#397=ORIENTED_EDGE('',*,*,#368,.T.);
#398=EDGE_LOOP('',(#393,#394,#396,#397));
#399=FACE_OUTER_BOUND('',#398,.F.);
#401=CARTESIAN_POINT('',(5.1E-1,-3.E0,2.5E0));
#402=DIRECTION('',(1.E0,0.E0,0.E0));
#403=DIRECTION('',(0.E0,0.E0,-1.E0));
#404=AXIS2_PLACEMENT_3D('',#401,#402,#403);
#405=PLANE('',#404);
#406=ORIENTED_EDGE('',*,*,#370,.F.);
#407=ORIENTED_EDGE('',*,*,#395,.F.);
#408=EDGE_LOOP('',(#406,#407));
#409=FACE_OUTER_BOUND('',#408,.F.);
#411=CLOSED_SHELL('',(#376,#387,#400,#410));
#412=MANIFOLD_SOLID_BREP('',#411);
#414=DIMENSIONAL_EXPONENTS(0.E0,0.E0,0.E0,0.E0,0.E0,0.E0,0.E0);
#416=PLANE_ANGLE_MEASURE_WITH_UNIT(PLANE_ANGLE_MEASURE(1.745329251994E-2),#415);
#417=(CONVERSION_BASED_UNIT('DEGREE',#416)NAMED_UNIT(*)PLANE_ANGLE_UNIT());
#419=UNCERTAINTY_MEASURE_WITH_UNIT(LENGTH_MEASURE(3.406018001184E-4),#413,
'closure',
'Maximum model space distance between geometric entities at asserted connectivities');
#422=APPLICATION_CONTEXT(
'CONFIGURATION CONTROLLED 3D DESIGNS OF MECHANICAL PARTS AND ASSEMBLIES');
#423=APPLICATION_PROTOCOL_DEFINITION('international standard',
'config_control_design',1994,#422);
#424=DESIGN_CONTEXT('',#422,'design');
#425=MECHANICAL_CONTEXT('',#422,'mechanical');
#426=PRODUCT('2035-XX-A1','2035-XX-A1','NOT SPECIFIED',(#425));
#427=PRODUCT_DEFINITION_FORMATION_WITH_SPECIFIED_SOURCE('2','LAST_VERSION',#426,
.MADE.);
#431=PRODUCT_CATEGORY('part','');
#432=PRODUCT_RELATED_PRODUCT_CATEGORY('detail','',(#426));
#433=PRODUCT_CATEGORY_RELATIONSHIP('','',#431,#432);
#434=SECURITY_CLASSIFICATION_LEVEL('unclassified');
#435=SECURITY_CLASSIFICATION('','',#434);
#436=CC_DESIGN_SECURITY_CLASSIFICATION(#435,(#427));
#437=APPROVAL_STATUS('approved');
#438=APPROVAL(#437,'');
#439=CC_DESIGN_APPROVAL(#438,(#435,#427,#428));
#440=CALENDAR_DATE(112,30,7);
#441=COORDINATED_UNIVERSAL_TIME_OFFSET(7,0,.BEHIND.);
#442=LOCAL_TIME(15,28,4.2E1,#441);
#443=DATE_AND_TIME(#440,#442);
#444=APPROVAL_DATE_TIME(#443,#438);
#445=DATE_TIME_ROLE('creation_date');
#446=CC_DESIGN_DATE_AND_TIME_ASSIGNMENT(#443,#445,(#428));
#447=DATE_TIME_ROLE('classification_date');
#448=CC_DESIGN_DATE_AND_TIME_ASSIGNMENT(#443,#447,(#435));
#449=PERSON('UNSPECIFIED','UNSPECIFIED',$,$,$,$);
#450=ORGANIZATION('UNSPECIFIED','UNSPECIFIED','UNSPECIFIED');
#451=PERSON_AND_ORGANIZATION(#449,#450);
#452=APPROVAL_ROLE('approver');
#453=APPROVAL_PERSON_ORGANIZATION(#451,#438,#452);
#454=PERSON_AND_ORGANIZATION_ROLE('creator');
#455=CC_DESIGN_PERSON_AND_ORGANIZATION_ASSIGNMENT(#451,#454,(#427,#428));
#456=PERSON_AND_ORGANIZATION_ROLE('design_supplier');
#457=CC_DESIGN_PERSON_AND_ORGANIZATION_ASSIGNMENT(#451,#456,(#427));
#458=PERSON_AND_ORGANIZATION_ROLE('classification_officer');
#459=CC_DESIGN_PERSON_AND_ORGANIZATION_ASSIGNMENT(#451,#458,(#435));
#460=PERSON_AND_ORGANIZATION_ROLE('design_owner');
#461=CC_DESIGN_PERSON_AND_ORGANIZATION_ASSIGNMENT(#451,#460,(#426));
#5=CIRCLE('',#4,2.5E0);
#10=CIRCLE('',#9,2.5E0);
#15=CIRCLE('',#14,1.25E0);
#20=CIRCLE('',#19,1.25E0);
#25=CIRCLE('',#24,2.5E0);
#34=CIRCLE('',#33,1.25E0);
#39=CIRCLE('',#38,1.25E0);
#44=CIRCLE('',#43,2.5E0);
#78=EDGE_CURVE('',#59,#60,#5,.T.);
#80=EDGE_CURVE('',#60,#59,#10,.T.);
#84=EDGE_CURVE('',#67,#68,#15,.T.);
#86=EDGE_CURVE('',#68,#67,#20,.T.);
#90=ADVANCED_FACE('',(#83,#89),#77,.F.);
#96=EDGE_CURVE('',#63,#64,#25,.T.);
#98=EDGE_CURVE('',#60,#64,#48,.T.);
#101=EDGE_CURVE('',#59,#63,#29,.T.);
#105=ADVANCED_FACE('',(#104),#95,.T.);
#112=EDGE_CURVE('',#64,#63,#44,.T.);
#116=EDGE_CURVE('',#71,#72,#34,.T.);
#118=EDGE_CURVE('',#72,#71,#39,.T.);
#122=ADVANCED_FACE('',(#115,#121),#110,.F.);
#134=ADVANCED_FACE('',(#133),#127,.T.);
#141=EDGE_CURVE('',#67,#71,#52,.T.);
#144=EDGE_CURVE('',#68,#72,#56,.T.);
#148=ADVANCED_FACE('',(#147),#139,.F.);
#160=ADVANCED_FACE('',(#159),#153,.F.);
#167=CIRCLE('',#166,2.5E0);
#172=CIRCLE('',#171,2.5E0);
#177=CIRCLE('',#176,1.25E0);
#182=CIRCLE('',#181,1.25E0);
#187=CIRCLE('',#186,2.5E0);
#196=CIRCLE('',#195,1.25E0);
#201=CIRCLE('',#200,1.25E0);
#206=CIRCLE('',#205,2.5E0);
#240=EDGE_CURVE('',#221,#222,#167,.T.);
#242=EDGE_CURVE('',#222,#221,#172,.T.);
#246=EDGE_CURVE('',#229,#230,#177,.T.);
#248=EDGE_CURVE('',#230,#229,#182,.T.);
#252=ADVANCED_FACE('',(#245,#251),#239,.T.);
#258=EDGE_CURVE('',#225,#226,#187,.T.);
#260=EDGE_CURVE('',#226,#221,#191,.T.);
#263=EDGE_CURVE('',#225,#222,#210,.T.);
#267=ADVANCED_FACE('',(#266),#257,.T.);
#274=EDGE_CURVE('',#226,#225,#206,.T.);
#278=EDGE_CURVE('',#233,#234,#196,.T.);
#280=EDGE_CURVE('',#234,#233,#201,.T.);
#284=ADVANCED_FACE('',(#277,#283),#272,.F.);
#296=ADVANCED_FACE('',(#295),#289,.T.);
#303=EDGE_CURVE('',#229,#233,#214,.T.);
#306=EDGE_CURVE('',#230,#234,#218,.T.);
#310=ADVANCED_FACE('',(#309),#301,.F.);
#322=ADVANCED_FACE('',(#321),#315,.F.);
#329=CIRCLE('',#328,2.5E0);
#334=CIRCLE('',#333,2.5E0);
#343=CIRCLE('',#342,2.5E0);
#348=CIRCLE('',#347,2.5E0);
#366=EDGE_CURVE('',#355,#356,#329,.T.);
#368=EDGE_CURVE('',#359,#356,#352,.T.);
#370=EDGE_CURVE('',#359,#360,#334,.T.);
#372=EDGE_CURVE('',#360,#355,#338,.T.);
#376=ADVANCED_FACE('',(#375),#365,.T.);
#383=EDGE_CURVE('',#356,#355,#343,.T.);
#387=ADVANCED_FACE('',(#386),#381,.F.);
#395=EDGE_CURVE('',#360,#359,#348,.T.);
#400=ADVANCED_FACE('',(#399),#392,.T.);
#410=ADVANCED_FACE('',(#409),#405,.F.);
#413=(LENGTH_UNIT()NAMED_UNIT(*)SI_UNIT(.MILLI.,.METRE.));
#415=(NAMED_UNIT(*)PLANE_ANGLE_UNIT()SI_UNIT($,.RADIAN.));
#418=(NAMED_UNIT(*)SI_UNIT($,.STERADIAN.)SOLID_ANGLE_UNIT());
#420=(GEOMETRIC_REPRESENTATION_CONTEXT(3)GLOBAL_UNCERTAINTY_ASSIGNED_CONTEXT((
#419))GLOBAL_UNIT_ASSIGNED_CONTEXT((#413,#417,#418))REPRESENTATION_CONTEXT
('ID1','3'));
#421=ADVANCED_BREP_SHAPE_REPRESENTATION('',(#162,#324,#412),#420);
#428=PRODUCT_DEFINITION('design','',#427,#424);
#429=PRODUCT_DEFINITION_SHAPE('','SHAPE FOR 2035-XX-A1.',#428);
#430=SHAPE_DEFINITION_REPRESENTATION(#429,#421);
ENDSEC;
END-ISO-10303-21;
