ISO-10303-21;
HEADER;
/* Generated by software containing ST-Developer
 * from STEP Tools, Inc. (www.steptools.com) 
 */

FILE_DESCRIPTION(
/* description */ (''),
/* implementation_level */ '2;1');

FILE_NAME(
/* name */ '\\\\tel-vfs1\\GDT-Drawings\\Gas Tubes\\2029-SM.stp',
/* time_stamp */ '2015-08-10T14:00:20-06:00',
/* author */ ('Lidsneyf'),
/* organization */ (''),
/* preprocessor_version */ 'ST-DEVELOPER v15.6',
/* originating_system */ 'Autodesk Inventor 2015',
/* authorisation */ '');

FILE_SCHEMA (('AUTOMOTIVE_DESIGN { 1 0 10303 214 3 1 1 }'));
ENDSEC;

DATA;
#10=MECHANICAL_DESIGN_GEOMETRIC_PRESENTATION_REPRESENTATION('',(#15,#14),
#552);
#11=SHAPE_REPRESENTATION_RELATIONSHIP('SRR','None',#564,#12);
#12=ADVANCED_BREP_SHAPE_REPRESENTATION($,(#13),#551);
#13=MANIFOLD_SOLID_BREP('Solid1',#316);
#14=STYLED_ITEM('',(#574),#315);
#15=STYLED_ITEM('',(#573),#13);
#16=LINE('',#489,#32);
#17=LINE('',#493,#33);
#18=LINE('',#497,#34);
#19=LINE('',#501,#35);
#20=LINE('',#516,#36);
#21=LINE('',#520,#37);
#22=LINE('',#524,#38);
#23=LINE('',#528,#39);
#24=LINE('',#533,#40);
#25=LINE('',#534,#41);
#26=LINE('',#536,#42);
#27=LINE('',#538,#43);
#28=LINE('',#540,#44);
#29=LINE('',#542,#45);
#30=LINE('',#544,#46);
#31=LINE('',#546,#47);
#32=VECTOR('',#394,0.192155535959805);
#33=VECTOR('',#397,0.192155535959805);
#34=VECTOR('',#400,0.192155535959805);
#35=VECTOR('',#403,0.192155535959805);
#36=VECTOR('',#422,0.192155535959805);
#37=VECTOR('',#425,0.192155535959805);
#38=VECTOR('',#428,0.192155535959805);
#39=VECTOR('',#431,0.192155535959805);
#40=VECTOR('',#438,0.0185);
#41=VECTOR('',#439,0.0185);
#42=VECTOR('',#442,0.0185);
#43=VECTOR('',#445,0.0185);
#44=VECTOR('',#448,0.0185);
#45=VECTOR('',#451,0.0185);
#46=VECTOR('',#454,0.0185);
#47=VECTOR('',#457,0.0185);
#48=PLANE('',#323);
#49=PLANE('',#327);
#50=PLANE('',#333);
#51=PLANE('',#340);
#52=PLANE('',#341);
#53=PLANE('',#345);
#54=PLANE('',#352);
#55=PLANE('',#354);
#56=PLANE('',#356);
#57=PLANE('',#358);
#58=CYLINDRICAL_SURFACE('',#321,0.0625);
#59=CYLINDRICAL_SURFACE('',#331,0.0615);
#60=CYLINDRICAL_SURFACE('',#344,0.15575);
#61=CYLINDRICAL_SURFACE('',#351,0.183);
#62=CYLINDRICAL_SURFACE('',#353,0.183);
#63=CYLINDRICAL_SURFACE('',#355,0.183);
#64=CYLINDRICAL_SURFACE('',#357,0.183);
#65=CYLINDRICAL_SURFACE('',#359,0.147637795275591);
#66=FACE_BOUND('',#101,.T.);
#67=FACE_BOUND('',#103,.T.);
#68=FACE_BOUND('',#105,.T.);
#69=FACE_BOUND('',#107,.T.);
#70=FACE_BOUND('',#110,.T.);
#71=FACE_BOUND('',#112,.T.);
#72=FACE_BOUND('',#114,.T.);
#73=FACE_BOUND('',#116,.T.);
#74=FACE_BOUND('',#119,.T.);
#75=FACE_BOUND('',#121,.T.);
#76=FACE_BOUND('',#123,.T.);
#77=FACE_BOUND('',#133,.T.);
#78=FACE_OUTER_BOUND('',#100,.T.);
#79=FACE_OUTER_BOUND('',#102,.T.);
#80=FACE_OUTER_BOUND('',#104,.T.);
#81=FACE_OUTER_BOUND('',#106,.T.);
#82=FACE_OUTER_BOUND('',#108,.T.);
#83=FACE_OUTER_BOUND('',#109,.T.);
#84=FACE_OUTER_BOUND('',#111,.T.);
#85=FACE_OUTER_BOUND('',#113,.T.);
#86=FACE_OUTER_BOUND('',#115,.T.);
#87=FACE_OUTER_BOUND('',#117,.T.);
#88=FACE_OUTER_BOUND('',#118,.T.);
#89=FACE_OUTER_BOUND('',#120,.T.);
#90=FACE_OUTER_BOUND('',#122,.T.);
#91=FACE_OUTER_BOUND('',#124,.T.);
#92=FACE_OUTER_BOUND('',#125,.T.);
#93=FACE_OUTER_BOUND('',#126,.T.);
#94=FACE_OUTER_BOUND('',#127,.T.);
#95=FACE_OUTER_BOUND('',#128,.T.);
#96=FACE_OUTER_BOUND('',#129,.T.);
#97=FACE_OUTER_BOUND('',#130,.T.);
#98=FACE_OUTER_BOUND('',#131,.T.);
#99=FACE_OUTER_BOUND('',#132,.T.);
#100=EDGE_LOOP('',(#218));
#101=EDGE_LOOP('',(#219));
#102=EDGE_LOOP('',(#220));
#103=EDGE_LOOP('',(#221));
#104=EDGE_LOOP('',(#222));
#105=EDGE_LOOP('',(#223));
#106=EDGE_LOOP('',(#224));
#107=EDGE_LOOP('',(#225));
#108=EDGE_LOOP('',(#226));
#109=EDGE_LOOP('',(#227));
#110=EDGE_LOOP('',(#228));
#111=EDGE_LOOP('',(#229));
#112=EDGE_LOOP('',(#230));
#113=EDGE_LOOP('',(#231,#232,#233,#234,#235,#236,#237,#238));
#114=EDGE_LOOP('',(#239));
#115=EDGE_LOOP('',(#240));
#116=EDGE_LOOP('',(#241));
#117=EDGE_LOOP('',(#242));
#118=EDGE_LOOP('',(#243));
#119=EDGE_LOOP('',(#244));
#120=EDGE_LOOP('',(#245));
#121=EDGE_LOOP('',(#246));
#122=EDGE_LOOP('',(#247,#248,#249,#250,#251,#252,#253,#254));
#123=EDGE_LOOP('',(#255));
#124=EDGE_LOOP('',(#256,#257,#258,#259));
#125=EDGE_LOOP('',(#260,#261,#262,#263));
#126=EDGE_LOOP('',(#264,#265,#266,#267));
#127=EDGE_LOOP('',(#268,#269,#270,#271));
#128=EDGE_LOOP('',(#272,#273,#274,#275));
#129=EDGE_LOOP('',(#276,#277,#278,#279));
#130=EDGE_LOOP('',(#280,#281,#282,#283));
#131=EDGE_LOOP('',(#284,#285,#286,#287));
#132=EDGE_LOOP('',(#288));
#133=EDGE_LOOP('',(#289));
#134=CIRCLE('',#319,0.0625);
#135=CIRCLE('',#320,0.0675);
#136=CIRCLE('',#322,0.0625);
#137=CIRCLE('',#324,0.15575);
#138=CIRCLE('',#326,0.0575);
#139=CIRCLE('',#329,0.0615);
#140=CIRCLE('',#330,0.0665);
#141=CIRCLE('',#332,0.0615);
#142=CIRCLE('',#334,0.183);
#143=CIRCLE('',#335,0.183);
#144=CIRCLE('',#336,0.183);
#145=CIRCLE('',#337,0.183);
#146=CIRCLE('',#339,0.0565);
#147=CIRCLE('',#342,0.15575);
#148=CIRCLE('',#343,0.147637795275591);
#149=CIRCLE('',#346,0.183);
#150=CIRCLE('',#347,0.183);
#151=CIRCLE('',#348,0.183);
#152=CIRCLE('',#349,0.183);
#153=CIRCLE('',#350,0.147637795275591);
#154=VERTEX_POINT('',#464);
#155=VERTEX_POINT('',#466);
#156=VERTEX_POINT('',#469);
#157=VERTEX_POINT('',#472);
#158=VERTEX_POINT('',#475);
#159=VERTEX_POINT('',#479);
#160=VERTEX_POINT('',#481);
#161=VERTEX_POINT('',#484);
#162=VERTEX_POINT('',#487);
#163=VERTEX_POINT('',#488);
#164=VERTEX_POINT('',#490);
#165=VERTEX_POINT('',#492);
#166=VERTEX_POINT('',#494);
#167=VERTEX_POINT('',#496);
#168=VERTEX_POINT('',#498);
#169=VERTEX_POINT('',#500);
#170=VERTEX_POINT('',#504);
#171=VERTEX_POINT('',#508);
#172=VERTEX_POINT('',#510);
#173=VERTEX_POINT('',#514);
#174=VERTEX_POINT('',#515);
#175=VERTEX_POINT('',#517);
#176=VERTEX_POINT('',#519);
#177=VERTEX_POINT('',#521);
#178=VERTEX_POINT('',#523);
#179=VERTEX_POINT('',#525);
#180=VERTEX_POINT('',#527);
#181=VERTEX_POINT('',#530);
#182=EDGE_CURVE('',#154,#154,#134,.T.);
#183=EDGE_CURVE('',#155,#155,#135,.T.);
#184=EDGE_CURVE('',#156,#156,#136,.T.);
#185=EDGE_CURVE('',#157,#157,#137,.T.);
#186=EDGE_CURVE('',#158,#158,#138,.T.);
#187=EDGE_CURVE('',#159,#159,#139,.T.);
#188=EDGE_CURVE('',#160,#160,#140,.T.);
#189=EDGE_CURVE('',#161,#161,#141,.T.);
#190=EDGE_CURVE('',#162,#163,#16,.T.);
#191=EDGE_CURVE('',#163,#164,#142,.T.);
#192=EDGE_CURVE('',#164,#165,#17,.T.);
#193=EDGE_CURVE('',#165,#166,#143,.T.);
#194=EDGE_CURVE('',#166,#167,#18,.T.);
#195=EDGE_CURVE('',#167,#168,#144,.T.);
#196=EDGE_CURVE('',#168,#169,#19,.T.);
#197=EDGE_CURVE('',#169,#162,#145,.T.);
#198=EDGE_CURVE('',#170,#170,#146,.T.);
#199=EDGE_CURVE('',#171,#171,#147,.T.);
#200=EDGE_CURVE('',#172,#172,#148,.T.);
#201=EDGE_CURVE('',#173,#174,#20,.T.);
#202=EDGE_CURVE('',#174,#175,#149,.T.);
#203=EDGE_CURVE('',#175,#176,#21,.T.);
#204=EDGE_CURVE('',#176,#177,#150,.T.);
#205=EDGE_CURVE('',#177,#178,#22,.T.);
#206=EDGE_CURVE('',#178,#179,#151,.T.);
#207=EDGE_CURVE('',#179,#180,#23,.T.);
#208=EDGE_CURVE('',#180,#173,#152,.T.);
#209=EDGE_CURVE('',#181,#181,#153,.T.);
#210=EDGE_CURVE('',#174,#162,#24,.T.);
#211=EDGE_CURVE('',#175,#169,#25,.T.);
#212=EDGE_CURVE('',#176,#168,#26,.T.);
#213=EDGE_CURVE('',#177,#167,#27,.T.);
#214=EDGE_CURVE('',#178,#166,#28,.T.);
#215=EDGE_CURVE('',#179,#165,#29,.T.);
#216=EDGE_CURVE('',#180,#164,#30,.T.);
#217=EDGE_CURVE('',#173,#163,#31,.T.);
#218=ORIENTED_EDGE('',*,*,#182,.T.);
#219=ORIENTED_EDGE('',*,*,#183,.T.);
#220=ORIENTED_EDGE('',*,*,#184,.F.);
#221=ORIENTED_EDGE('',*,*,#182,.F.);
#222=ORIENTED_EDGE('',*,*,#185,.T.);
#223=ORIENTED_EDGE('',*,*,#183,.F.);
#224=ORIENTED_EDGE('',*,*,#186,.T.);
#225=ORIENTED_EDGE('',*,*,#184,.T.);
#226=ORIENTED_EDGE('',*,*,#186,.F.);
#227=ORIENTED_EDGE('',*,*,#187,.T.);
#228=ORIENTED_EDGE('',*,*,#188,.T.);
#229=ORIENTED_EDGE('',*,*,#189,.F.);
#230=ORIENTED_EDGE('',*,*,#187,.F.);
#231=ORIENTED_EDGE('',*,*,#190,.T.);
#232=ORIENTED_EDGE('',*,*,#191,.T.);
#233=ORIENTED_EDGE('',*,*,#192,.T.);
#234=ORIENTED_EDGE('',*,*,#193,.T.);
#235=ORIENTED_EDGE('',*,*,#194,.T.);
#236=ORIENTED_EDGE('',*,*,#195,.T.);
#237=ORIENTED_EDGE('',*,*,#196,.T.);
#238=ORIENTED_EDGE('',*,*,#197,.T.);
#239=ORIENTED_EDGE('',*,*,#188,.F.);
#240=ORIENTED_EDGE('',*,*,#198,.T.);
#241=ORIENTED_EDGE('',*,*,#189,.T.);
#242=ORIENTED_EDGE('',*,*,#198,.F.);
#243=ORIENTED_EDGE('',*,*,#199,.T.);
#244=ORIENTED_EDGE('',*,*,#200,.T.);
#245=ORIENTED_EDGE('',*,*,#185,.F.);
#246=ORIENTED_EDGE('',*,*,#199,.F.);
#247=ORIENTED_EDGE('',*,*,#201,.T.);
#248=ORIENTED_EDGE('',*,*,#202,.T.);
#249=ORIENTED_EDGE('',*,*,#203,.T.);
#250=ORIENTED_EDGE('',*,*,#204,.T.);
#251=ORIENTED_EDGE('',*,*,#205,.T.);
#252=ORIENTED_EDGE('',*,*,#206,.T.);
#253=ORIENTED_EDGE('',*,*,#207,.T.);
#254=ORIENTED_EDGE('',*,*,#208,.T.);
#255=ORIENTED_EDGE('',*,*,#209,.F.);
#256=ORIENTED_EDGE('',*,*,#202,.F.);
#257=ORIENTED_EDGE('',*,*,#210,.T.);
#258=ORIENTED_EDGE('',*,*,#197,.F.);
#259=ORIENTED_EDGE('',*,*,#211,.F.);
#260=ORIENTED_EDGE('',*,*,#203,.F.);
#261=ORIENTED_EDGE('',*,*,#211,.T.);
#262=ORIENTED_EDGE('',*,*,#196,.F.);
#263=ORIENTED_EDGE('',*,*,#212,.F.);
#264=ORIENTED_EDGE('',*,*,#204,.F.);
#265=ORIENTED_EDGE('',*,*,#212,.T.);
#266=ORIENTED_EDGE('',*,*,#195,.F.);
#267=ORIENTED_EDGE('',*,*,#213,.F.);
#268=ORIENTED_EDGE('',*,*,#205,.F.);
#269=ORIENTED_EDGE('',*,*,#213,.T.);
#270=ORIENTED_EDGE('',*,*,#194,.F.);
#271=ORIENTED_EDGE('',*,*,#214,.F.);
#272=ORIENTED_EDGE('',*,*,#206,.F.);
#273=ORIENTED_EDGE('',*,*,#214,.T.);
#274=ORIENTED_EDGE('',*,*,#193,.F.);
#275=ORIENTED_EDGE('',*,*,#215,.F.);
#276=ORIENTED_EDGE('',*,*,#207,.F.);
#277=ORIENTED_EDGE('',*,*,#215,.T.);
#278=ORIENTED_EDGE('',*,*,#192,.F.);
#279=ORIENTED_EDGE('',*,*,#216,.F.);
#280=ORIENTED_EDGE('',*,*,#208,.F.);
#281=ORIENTED_EDGE('',*,*,#216,.T.);
#282=ORIENTED_EDGE('',*,*,#191,.F.);
#283=ORIENTED_EDGE('',*,*,#217,.F.);
#284=ORIENTED_EDGE('',*,*,#201,.F.);
#285=ORIENTED_EDGE('',*,*,#217,.T.);
#286=ORIENTED_EDGE('',*,*,#190,.F.);
#287=ORIENTED_EDGE('',*,*,#210,.F.);
#288=ORIENTED_EDGE('',*,*,#209,.T.);
#289=ORIENTED_EDGE('',*,*,#200,.F.);
#290=TOROIDAL_SURFACE('',#318,0.0675,0.005);
#291=TOROIDAL_SURFACE('',#325,0.0575,0.005);
#292=TOROIDAL_SURFACE('',#328,0.0665,0.005);
#293=TOROIDAL_SURFACE('',#338,0.0565,0.005);
#294=ADVANCED_FACE('',(#78,#66),#290,.T.);
#295=ADVANCED_FACE('',(#79,#67),#58,.F.);
#296=ADVANCED_FACE('',(#80,#68),#48,.F.);
#297=ADVANCED_FACE('',(#81,#69),#291,.F.);
#298=ADVANCED_FACE('',(#82),#49,.F.);
#299=ADVANCED_FACE('',(#83,#70),#292,.T.);
#300=ADVANCED_FACE('',(#84,#71),#59,.F.);
#301=ADVANCED_FACE('',(#85,#72),#50,.T.);
#302=ADVANCED_FACE('',(#86,#73),#293,.F.);
#303=ADVANCED_FACE('',(#87),#51,.T.);
#304=ADVANCED_FACE('',(#88,#74),#52,.T.);
#305=ADVANCED_FACE('',(#89,#75),#60,.T.);
#306=ADVANCED_FACE('',(#90,#76),#53,.F.);
#307=ADVANCED_FACE('',(#91),#61,.T.);
#308=ADVANCED_FACE('',(#92),#54,.T.);
#309=ADVANCED_FACE('',(#93),#62,.T.);
#310=ADVANCED_FACE('',(#94),#55,.T.);
#311=ADVANCED_FACE('',(#95),#63,.T.);
#312=ADVANCED_FACE('',(#96),#56,.T.);
#313=ADVANCED_FACE('',(#97),#64,.T.);
#314=ADVANCED_FACE('',(#98),#57,.T.);
#315=ADVANCED_FACE('',(#99,#77),#65,.T.);
#316=CLOSED_SHELL('',(#294,#295,#296,#297,#298,#299,#300,#301,#302,#303,
#304,#305,#306,#307,#308,#309,#310,#311,#312,#313,#314,#315));
#317=AXIS2_PLACEMENT_3D('placement',#462,#360,#361);
#318=AXIS2_PLACEMENT_3D('',#463,#362,#363);
#319=AXIS2_PLACEMENT_3D('',#465,#364,#365);
#320=AXIS2_PLACEMENT_3D('',#467,#366,#367);
#321=AXIS2_PLACEMENT_3D('',#468,#368,#369);
#322=AXIS2_PLACEMENT_3D('',#470,#370,#371);
#323=AXIS2_PLACEMENT_3D('',#471,#372,#373);
#324=AXIS2_PLACEMENT_3D('',#473,#374,#375);
#325=AXIS2_PLACEMENT_3D('',#474,#376,#377);
#326=AXIS2_PLACEMENT_3D('',#476,#378,#379);
#327=AXIS2_PLACEMENT_3D('',#477,#380,#381);
#328=AXIS2_PLACEMENT_3D('',#478,#382,#383);
#329=AXIS2_PLACEMENT_3D('',#480,#384,#385);
#330=AXIS2_PLACEMENT_3D('',#482,#386,#387);
#331=AXIS2_PLACEMENT_3D('',#483,#388,#389);
#332=AXIS2_PLACEMENT_3D('',#485,#390,#391);
#333=AXIS2_PLACEMENT_3D('',#486,#392,#393);
#334=AXIS2_PLACEMENT_3D('',#491,#395,#396);
#335=AXIS2_PLACEMENT_3D('',#495,#398,#399);
#336=AXIS2_PLACEMENT_3D('',#499,#401,#402);
#337=AXIS2_PLACEMENT_3D('',#502,#404,#405);
#338=AXIS2_PLACEMENT_3D('',#503,#406,#407);
#339=AXIS2_PLACEMENT_3D('',#505,#408,#409);
#340=AXIS2_PLACEMENT_3D('',#506,#410,#411);
#341=AXIS2_PLACEMENT_3D('',#507,#412,#413);
#342=AXIS2_PLACEMENT_3D('',#509,#414,#415);
#343=AXIS2_PLACEMENT_3D('',#511,#416,#417);
#344=AXIS2_PLACEMENT_3D('',#512,#418,#419);
#345=AXIS2_PLACEMENT_3D('',#513,#420,#421);
#346=AXIS2_PLACEMENT_3D('',#518,#423,#424);
#347=AXIS2_PLACEMENT_3D('',#522,#426,#427);
#348=AXIS2_PLACEMENT_3D('',#526,#429,#430);
#349=AXIS2_PLACEMENT_3D('',#529,#432,#433);
#350=AXIS2_PLACEMENT_3D('',#531,#434,#435);
#351=AXIS2_PLACEMENT_3D('',#532,#436,#437);
#352=AXIS2_PLACEMENT_3D('',#535,#440,#441);
#353=AXIS2_PLACEMENT_3D('',#537,#443,#444);
#354=AXIS2_PLACEMENT_3D('',#539,#446,#447);
#355=AXIS2_PLACEMENT_3D('',#541,#449,#450);
#356=AXIS2_PLACEMENT_3D('',#543,#452,#453);
#357=AXIS2_PLACEMENT_3D('',#545,#455,#456);
#358=AXIS2_PLACEMENT_3D('',#547,#458,#459);
#359=AXIS2_PLACEMENT_3D('',#548,#460,#461);
#360=DIRECTION('axis',(0.,0.,1.));
#361=DIRECTION('refdir',(1.,0.,0.));
#362=DIRECTION('center_axis',(0.,0.,1.));
#363=DIRECTION('ref_axis',(1.,0.,0.));
#364=DIRECTION('center_axis',(0.,0.,1.));
#365=DIRECTION('ref_axis',(1.,0.,0.));
#366=DIRECTION('center_axis',(0.,0.,-1.));
#367=DIRECTION('ref_axis',(1.,0.,0.));
#368=DIRECTION('center_axis',(0.,0.,1.));
#369=DIRECTION('ref_axis',(1.,0.,0.));
#370=DIRECTION('center_axis',(0.,0.,-1.));
#371=DIRECTION('ref_axis',(1.,0.,0.));
#372=DIRECTION('center_axis',(0.,0.,1.));
#373=DIRECTION('ref_axis',(1.,0.,0.));
#374=DIRECTION('center_axis',(0.,0.,-1.));
#375=DIRECTION('ref_axis',(1.,0.,0.));
#376=DIRECTION('center_axis',(0.,0.,1.));
#377=DIRECTION('ref_axis',(1.,0.,0.));
#378=DIRECTION('center_axis',(0.,0.,1.));
#379=DIRECTION('ref_axis',(1.,0.,0.));
#380=DIRECTION('center_axis',(0.,0.,1.));
#381=DIRECTION('ref_axis',(1.,0.,0.));
#382=DIRECTION('center_axis',(0.,0.,-1.));
#383=DIRECTION('ref_axis',(-1.,0.,0.));
#384=DIRECTION('center_axis',(0.,0.,-1.));
#385=DIRECTION('ref_axis',(-1.,0.,0.));
#386=DIRECTION('center_axis',(0.,0.,1.));
#387=DIRECTION('ref_axis',(-1.,0.,0.));
#388=DIRECTION('center_axis',(0.,0.,-1.));
#389=DIRECTION('ref_axis',(-1.,0.,0.));
#390=DIRECTION('center_axis',(0.,0.,1.));
#391=DIRECTION('ref_axis',(-1.,0.,0.));
#392=DIRECTION('center_axis',(0.,0.,1.));
#393=DIRECTION('ref_axis',(1.,0.,0.));
#394=DIRECTION('',(-1.,-2.27469730082465E-16,0.));
#395=DIRECTION('center_axis',(0.,0.,1.));
#396=DIRECTION('ref_axis',(0.525015125573238,-0.851092896174863,0.));
#397=DIRECTION('',(-3.41204595123697E-16,-1.,0.));
#398=DIRECTION('center_axis',(0.,0.,1.));
#399=DIRECTION('ref_axis',(0.851092896174863,0.525015125573239,0.));
#400=DIRECTION('',(1.,1.13734865041232E-16,0.));
#401=DIRECTION('center_axis',(0.,0.,1.));
#402=DIRECTION('ref_axis',(-0.525015125573239,0.851092896174863,0.));
#403=DIRECTION('',(-3.41204595123697E-16,1.,0.));
#404=DIRECTION('center_axis',(0.,0.,1.));
#405=DIRECTION('ref_axis',(-0.851092896174863,-0.525015125573239,0.));
#406=DIRECTION('center_axis',(0.,0.,-1.));
#407=DIRECTION('ref_axis',(-1.,0.,0.));
#408=DIRECTION('center_axis',(0.,0.,-1.));
#409=DIRECTION('ref_axis',(-1.,0.,0.));
#410=DIRECTION('center_axis',(0.,0.,1.));
#411=DIRECTION('ref_axis',(1.,0.,0.));
#412=DIRECTION('center_axis',(0.,0.,1.));
#413=DIRECTION('ref_axis',(1.,0.,0.));
#414=DIRECTION('center_axis',(0.,0.,1.));
#415=DIRECTION('ref_axis',(1.,0.,0.));
#416=DIRECTION('center_axis',(0.,0.,-1.));
#417=DIRECTION('ref_axis',(1.,0.,0.));
#418=DIRECTION('center_axis',(0.,0.,-1.));
#419=DIRECTION('ref_axis',(1.,0.,0.));
#420=DIRECTION('center_axis',(0.,0.,1.));
#421=DIRECTION('ref_axis',(1.,0.,0.));
#422=DIRECTION('',(1.,2.27469730082465E-16,0.));
#423=DIRECTION('center_axis',(0.,0.,-1.));
#424=DIRECTION('ref_axis',(-0.851092896174863,-0.525015125573239,0.));
#425=DIRECTION('',(3.41204595123697E-16,-1.,0.));
#426=DIRECTION('center_axis',(0.,0.,-1.));
#427=DIRECTION('ref_axis',(-0.525015125573239,0.851092896174863,0.));
#428=DIRECTION('',(-1.,-1.13734865041232E-16,0.));
#429=DIRECTION('center_axis',(0.,0.,-1.));
#430=DIRECTION('ref_axis',(0.851092896174863,0.525015125573239,0.));
#431=DIRECTION('',(3.41204595123697E-16,1.,0.));
#432=DIRECTION('center_axis',(0.,0.,-1.));
#433=DIRECTION('ref_axis',(0.525015125573238,-0.851092896174863,0.));
#434=DIRECTION('center_axis',(0.,0.,-1.));
#435=DIRECTION('ref_axis',(1.,0.,0.));
#436=DIRECTION('center_axis',(0.,0.,1.));
#437=DIRECTION('ref_axis',(-0.851092896174863,-0.525015125573239,0.));
#438=DIRECTION('',(0.,0.,1.));
#439=DIRECTION('',(0.,0.,1.));
#440=DIRECTION('center_axis',(1.,3.41204595123697E-16,0.));
#441=DIRECTION('ref_axis',(-3.52495810318487E-16,1.,0.));
#442=DIRECTION('',(0.,0.,1.));
#443=DIRECTION('center_axis',(0.,0.,1.));
#444=DIRECTION('ref_axis',(-0.525015125573239,0.851092896174863,0.));
#445=DIRECTION('',(0.,0.,1.));
#446=DIRECTION('center_axis',(1.13734865041232E-16,-1.,0.));
#447=DIRECTION('ref_axis',(1.,1.40998324127395E-16,0.));
#448=DIRECTION('',(0.,0.,1.));
#449=DIRECTION('center_axis',(0.,0.,1.));
#450=DIRECTION('ref_axis',(0.851092896174863,0.525015125573239,0.));
#451=DIRECTION('',(0.,0.,1.));
#452=DIRECTION('center_axis',(-1.,3.41204595123697E-16,0.));
#453=DIRECTION('ref_axis',(-3.52495810318487E-16,-1.,0.));
#454=DIRECTION('',(0.,0.,1.));
#455=DIRECTION('center_axis',(0.,0.,1.));
#456=DIRECTION('ref_axis',(0.525015125573238,-0.851092896174863,0.));
#457=DIRECTION('',(0.,0.,1.));
#458=DIRECTION('center_axis',(-2.27469730082465E-16,1.,0.));
#459=DIRECTION('ref_axis',(-1.,-2.11497486191092E-16,0.));
#460=DIRECTION('center_axis',(0.,0.,1.));
#461=DIRECTION('ref_axis',(-1.,0.,0.));
#462=CARTESIAN_POINT('',(0.,0.,0.));
#463=CARTESIAN_POINT('Origin',(0.,0.,-0.113484251968504));
#464=CARTESIAN_POINT('',(-0.0625,-7.65404249467096E-18,-0.113484251968504));
#465=CARTESIAN_POINT('Origin',(0.,0.,-0.113484251968504));
#466=CARTESIAN_POINT('',(-0.0675,8.26636589424463E-18,-0.118484251968504));
#467=CARTESIAN_POINT('Origin',(0.,0.,-0.118484251968504));
#468=CARTESIAN_POINT('Origin',(0.,0.,-0.118484251968504));
#469=CARTESIAN_POINT('',(-0.0625,7.65404249467096E-18,-0.0954842519685039));
#470=CARTESIAN_POINT('Origin',(0.,0.,-0.0954842519685039));
#471=CARTESIAN_POINT('Origin',(6.1931522251206E-18,-2.30183136686363E-18,
-0.118484251968504));
#472=CARTESIAN_POINT('',(-0.15575,1.907387389672E-17,-0.118484251968504));
#473=CARTESIAN_POINT('Origin',(0.,0.,-0.118484251968504));
#474=CARTESIAN_POINT('Origin',(0.,0.,-0.0954842519685039));
#475=CARTESIAN_POINT('',(-0.0575,-7.04171909509728E-18,-0.0904842519685039));
#476=CARTESIAN_POINT('Origin',(0.,0.,-0.0904842519685039));
#477=CARTESIAN_POINT('Origin',(3.505918757668E-18,-1.43404094155604E-18,
-0.0904842519685039));
#478=CARTESIAN_POINT('Origin',(0.000749999999999952,0.00102542605605092,
0.115484251968504));
#479=CARTESIAN_POINT('',(0.0622499999999999,0.00102542605605091,0.115484251968504));
#480=CARTESIAN_POINT('Origin',(0.000749999999999952,0.00102542605605092,
0.115484251968504));
#481=CARTESIAN_POINT('',(0.0672499999999999,0.00102542605605092,0.120484251968504));
#482=CARTESIAN_POINT('Origin',(0.000749999999999952,0.00102542605605092,
0.120484251968504));
#483=CARTESIAN_POINT('Origin',(0.000749999999999952,0.00102542605605092,
0.120484251968504));
#484=CARTESIAN_POINT('',(0.0622499999999999,0.00102542605605092,0.106484251968504));
#485=CARTESIAN_POINT('Origin',(0.000749999999999952,0.00102542605605092,
0.106484251968504));
#486=CARTESIAN_POINT('Origin',(0.000749999999999959,0.0010254260560509,
0.120484251968504));
#487=CARTESIAN_POINT('',(0.0968277679799025,0.156775426056051,0.120484251968504));
#488=CARTESIAN_POINT('',(-0.0953277679799027,0.156775426056051,0.120484251968504));
#489=CARTESIAN_POINT('',(-0.0953277679799027,0.156775426056051,0.120484251968504));
#490=CARTESIAN_POINT('',(-0.155,0.0971031940359536,0.120484251968504));
#491=CARTESIAN_POINT('Origin',(0.000749999999999952,0.00102542605605092,
0.120484251968504));
#492=CARTESIAN_POINT('',(-0.155,-0.0950523419238517,0.120484251968504));
#493=CARTESIAN_POINT('',(-0.155,-0.0950523419238517,0.120484251968504));
#494=CARTESIAN_POINT('',(-0.0953277679799027,-0.154724573943949,0.120484251968504));
#495=CARTESIAN_POINT('Origin',(0.000749999999999952,0.00102542605605092,
0.120484251968504));
#496=CARTESIAN_POINT('',(0.0968277679799026,-0.154724573943949,0.120484251968504));
#497=CARTESIAN_POINT('',(0.0968277679799026,-0.154724573943949,0.120484251968504));
#498=CARTESIAN_POINT('',(0.1565,-0.0950523419238516,0.120484251968504));
#499=CARTESIAN_POINT('Origin',(0.000749999999999952,0.00102542605605092,
0.120484251968504));
#500=CARTESIAN_POINT('',(0.1565,0.0971031940359535,0.120484251968504));
#501=CARTESIAN_POINT('',(0.1565,0.0971031940359535,0.120484251968504));
#502=CARTESIAN_POINT('Origin',(0.000749999999999952,0.00102542605605092,
0.120484251968504));
#503=CARTESIAN_POINT('Origin',(0.000749999999999952,0.00102542605605092,
0.106484251968504));
#504=CARTESIAN_POINT('',(0.0572499999999999,0.00102542605605091,0.101484251968504));
#505=CARTESIAN_POINT('Origin',(0.000749999999999952,0.00102542605605092,
0.101484251968504));
#506=CARTESIAN_POINT('Origin',(0.000749999999999949,0.00102542605605092,
0.101484251968504));
#507=CARTESIAN_POINT('Origin',(6.1931522251206E-18,-2.30183136686363E-18,
-0.101984251968504));
#508=CARTESIAN_POINT('',(-0.15575,1.907387389672E-17,-0.101984251968504));
#509=CARTESIAN_POINT('Origin',(0.,0.,-0.101984251968504));
#510=CARTESIAN_POINT('',(-0.147637795275591,1.80804153417424E-17,-0.101984251968504));
#511=CARTESIAN_POINT('Origin',(0.,0.,-0.101984251968504));
#512=CARTESIAN_POINT('Origin',(0.,0.,-0.101984251968504));
#513=CARTESIAN_POINT('Origin',(0.000749999999999959,0.0010254260560509,
0.101984251968504));
#514=CARTESIAN_POINT('',(-0.0953277679799027,0.156775426056051,0.101984251968504));
#515=CARTESIAN_POINT('',(0.0968277679799025,0.156775426056051,0.101984251968504));
#516=CARTESIAN_POINT('',(-0.0953277679799027,0.156775426056051,0.101984251968504));
#517=CARTESIAN_POINT('',(0.1565,0.0971031940359535,0.101984251968504));
#518=CARTESIAN_POINT('Origin',(0.000749999999999952,0.00102542605605092,
0.101984251968504));
#519=CARTESIAN_POINT('',(0.1565,-0.0950523419238517,0.101984251968504));
#520=CARTESIAN_POINT('',(0.1565,0.0971031940359535,0.101984251968504));
#521=CARTESIAN_POINT('',(0.0968277679799026,-0.154724573943949,0.101984251968504));
#522=CARTESIAN_POINT('Origin',(0.000749999999999952,0.00102542605605092,
0.101984251968504));
#523=CARTESIAN_POINT('',(-0.0953277679799027,-0.154724573943949,0.101984251968504));
#524=CARTESIAN_POINT('',(0.0968277679799026,-0.154724573943949,0.101984251968504));
#525=CARTESIAN_POINT('',(-0.155,-0.0950523419238517,0.101984251968504));
#526=CARTESIAN_POINT('Origin',(0.000749999999999952,0.00102542605605092,
0.101984251968504));
#527=CARTESIAN_POINT('',(-0.155,0.0971031940359536,0.101984251968504));
#528=CARTESIAN_POINT('',(-0.155,-0.0950523419238517,0.101984251968504));
#529=CARTESIAN_POINT('Origin',(0.000749999999999952,0.00102542605605092,
0.101984251968504));
#530=CARTESIAN_POINT('',(-0.147637795275591,1.80804153417424E-17,0.101984251968504));
#531=CARTESIAN_POINT('Origin',(0.,0.,0.101984251968504));
#532=CARTESIAN_POINT('Origin',(0.000749999999999952,0.00102542605605092,
0.101984251968504));
#533=CARTESIAN_POINT('',(0.0968277679799025,0.156775426056051,0.101984251968504));
#534=CARTESIAN_POINT('',(0.1565,0.0971031940359535,0.101984251968504));
#535=CARTESIAN_POINT('Origin',(0.1565,-0.0950523419238517,0.101984251968504));
#536=CARTESIAN_POINT('',(0.1565,-0.0950523419238517,0.101984251968504));
#537=CARTESIAN_POINT('Origin',(0.000749999999999952,0.00102542605605092,
0.101984251968504));
#538=CARTESIAN_POINT('',(0.0968277679799026,-0.154724573943949,0.101984251968504));
#539=CARTESIAN_POINT('Origin',(-0.0953277679799027,-0.154724573943949,0.101984251968504));
#540=CARTESIAN_POINT('',(-0.0953277679799027,-0.154724573943949,0.101984251968504));
#541=CARTESIAN_POINT('Origin',(0.000749999999999952,0.00102542605605092,
0.101984251968504));
#542=CARTESIAN_POINT('',(-0.155,-0.0950523419238517,0.101984251968504));
#543=CARTESIAN_POINT('Origin',(-0.155,0.0971031940359536,0.101984251968504));
#544=CARTESIAN_POINT('',(-0.155,0.0971031940359536,0.101984251968504));
#545=CARTESIAN_POINT('Origin',(0.000749999999999952,0.00102542605605092,
0.101984251968504));
#546=CARTESIAN_POINT('',(-0.0953277679799027,0.156775426056051,0.101984251968504));
#547=CARTESIAN_POINT('Origin',(0.0968277679799025,0.156775426056051,0.101984251968504));
#548=CARTESIAN_POINT('Origin',(0.,0.,0.));
#549=UNCERTAINTY_MEASURE_WITH_UNIT(LENGTH_MEASURE(0.000393700787401575),
#553,'DISTANCE_ACCURACY_VALUE',
'Maximum model space distance between geometric entities at asserted c
onnectivities');
#550=UNCERTAINTY_MEASURE_WITH_UNIT(LENGTH_MEASURE(1.E-6),#554,
'DISTANCE_ACCURACY_VALUE',
'Maximum model space distance between geometric entities at asserted c
onnectivities');
#551=(
GEOMETRIC_REPRESENTATION_CONTEXT(3)
GLOBAL_UNCERTAINTY_ASSIGNED_CONTEXT((#549))
GLOBAL_UNIT_ASSIGNED_CONTEXT((#553,#559,#556))
REPRESENTATION_CONTEXT('','3D')
);
#552=(
GEOMETRIC_REPRESENTATION_CONTEXT(3)
GLOBAL_UNCERTAINTY_ASSIGNED_CONTEXT((#550))
GLOBAL_UNIT_ASSIGNED_CONTEXT((#554,#559,#556))
REPRESENTATION_CONTEXT('','3D')
);
#553=(
CONVERSION_BASED_UNIT('__CONSTANT UNIT inch',#555)
LENGTH_UNIT()
NAMED_UNIT(#558)
);
#554=(
LENGTH_UNIT()
NAMED_UNIT(*)
SI_UNIT(.MILLI.,.METRE.)
);
#555=LENGTH_MEASURE_WITH_UNIT(LENGTH_MEASURE(25.4),#554);
#556=(
NAMED_UNIT(*)
SI_UNIT($,.STERADIAN.)
SOLID_ANGLE_UNIT()
);
#557=DIMENSIONAL_EXPONENTS(0.,0.,0.,0.,0.,0.,0.);
#558=DIMENSIONAL_EXPONENTS(1.,0.,0.,0.,0.,0.,0.);
#559=(
CONVERSION_BASED_UNIT('degree',#561)
NAMED_UNIT(#557)
PLANE_ANGLE_UNIT()
);
#560=(
NAMED_UNIT(*)
PLANE_ANGLE_UNIT()
SI_UNIT($,.RADIAN.)
);
#561=PLANE_ANGLE_MEASURE_WITH_UNIT(PLANE_ANGLE_MEASURE(0.01745329252),#560);
#562=SHAPE_DEFINITION_REPRESENTATION(#563,#564);
#563=PRODUCT_DEFINITION_SHAPE('',$,#566);
#564=SHAPE_REPRESENTATION('',(#317),#551);
#565=PRODUCT_DEFINITION_CONTEXT('part definition',#570,'design');
#566=PRODUCT_DEFINITION('2029-SM','2029-SM',#567,#565);
#567=PRODUCT_DEFINITION_FORMATION('',$,#572);
#568=PRODUCT_RELATED_PRODUCT_CATEGORY('2029-SM','2029-SM',(#572));
#569=APPLICATION_PROTOCOL_DEFINITION('international standard',
'automotive_design',2009,#570);
#570=APPLICATION_CONTEXT(
'Core Data for Automotive Mechanical Design Process');
#571=PRODUCT_CONTEXT('part definition',#570,'mechanical');
#572=PRODUCT('2029-SM','2029-SM',$,(#571));
#573=PRESENTATION_STYLE_ASSIGNMENT((#575));
#574=PRESENTATION_STYLE_ASSIGNMENT((#576));
#575=SURFACE_STYLE_USAGE(.BOTH.,#577);
#576=SURFACE_STYLE_USAGE(.BOTH.,#578);
#577=SURFACE_SIDE_STYLE($,(#579));
#578=SURFACE_SIDE_STYLE($,(#580));
#579=SURFACE_STYLE_FILL_AREA(#581);
#580=SURFACE_STYLE_FILL_AREA(#582);
#581=FILL_AREA_STYLE($,(#583));
#582=FILL_AREA_STYLE($,(#584));
#583=FILL_AREA_STYLE_COLOUR($,#585);
#584=FILL_AREA_STYLE_COLOUR($,#586);
#585=COLOUR_RGB('',0.749019607843137,0.749019607843137,0.749019607843137);
#586=COLOUR_RGB('',0.00392156862745098,0.243137254901961,0.945098039215686);
ENDSEC;
END-ISO-10303-21;
