ISO-10303-21;
HEADER;
FILE_DESCRIPTION((''),'2;1');
FILE_NAME('2027-XX-A','2012-08-03T',('ryans'),('Bourns, Inc.'),
'PRO/ENGINEER BY PARAMETRIC TECHNOLOGY CORPORATION, 2010100',
'PRO/ENGINEER BY PARAMETRIC TECHNOLOGY CORPORATION, 2010100','');
FILE_SCHEMA(('CONFIG_CONTROL_DESIGN'));
ENDSEC;
DATA;
#1=CARTESIAN_POINT('',(0.E0,0.E0,1.224646799147E-14));
#2=DIRECTION('',(1.E0,0.E0,0.E0));
#3=DIRECTION('',(0.E0,-1.E0,0.E0));
#4=AXIS2_PLACEMENT_3D('',#1,#2,#3);
#6=CARTESIAN_POINT('',(0.E0,0.E0,1.224646799147E-14));
#7=DIRECTION('',(1.E0,0.E0,0.E0));
#8=DIRECTION('',(0.E0,1.E0,0.E0));
#9=AXIS2_PLACEMENT_3D('',#6,#7,#8);
#11=CARTESIAN_POINT('',(4.E-1,0.E0,1.224646799147E-14));
#12=DIRECTION('',(1.E0,0.E0,0.E0));
#13=DIRECTION('',(0.E0,-1.E0,0.E0));
#14=AXIS2_PLACEMENT_3D('',#11,#12,#13);
#16=DIRECTION('',(1.E0,0.E0,0.E0));
#17=VECTOR('',#16,4.E-1);
#18=CARTESIAN_POINT('',(0.E0,-4.E0,1.273632671113E-14));
#19=LINE('',#18,#17);
#20=CARTESIAN_POINT('',(4.E-1,0.E0,1.224646799147E-14));
#21=DIRECTION('',(1.E0,0.E0,0.E0));
#22=DIRECTION('',(0.E0,1.E0,0.E0));
#23=AXIS2_PLACEMENT_3D('',#20,#21,#22);
#25=DIRECTION('',(1.E0,0.E0,0.E0));
#26=VECTOR('',#25,4.E-1);
#27=CARTESIAN_POINT('',(0.E0,4.E0,1.175660927181E-14));
#28=LINE('',#27,#26);
#29=CARTESIAN_POINT('',(0.E0,-4.E0,1.273632671113E-14));
#30=CARTESIAN_POINT('',(0.E0,4.E0,1.126675055216E-14));
#31=VERTEX_POINT('',#29);
#32=VERTEX_POINT('',#30);
#33=CARTESIAN_POINT('',(4.E-1,-4.E0,1.332267629550E-14));
#34=CARTESIAN_POINT('',(4.E-1,4.E0,1.068040096779E-14));
#35=VERTEX_POINT('',#33);
#36=VERTEX_POINT('',#34);
#37=CARTESIAN_POINT('',(0.E0,0.E0,0.E0));
#38=DIRECTION('',(1.E0,0.E0,0.E0));
#39=DIRECTION('',(0.E0,-1.E0,0.E0));
#40=AXIS2_PLACEMENT_3D('',#37,#38,#39);
#41=PLANE('',#40);
#43=ORIENTED_EDGE('',*,*,#42,.T.);
#45=ORIENTED_EDGE('',*,*,#44,.T.);
#46=EDGE_LOOP('',(#43,#45));
#47=FACE_OUTER_BOUND('',#46,.F.);
#49=CARTESIAN_POINT('',(0.E0,0.E0,1.224646799147E-14));
#50=DIRECTION('',(1.E0,0.E0,0.E0));
#51=DIRECTION('',(0.E0,-1.E0,0.E0));
#52=AXIS2_PLACEMENT_3D('',#49,#50,#51);
#53=CYLINDRICAL_SURFACE('',#52,4.E0);
#55=ORIENTED_EDGE('',*,*,#54,.T.);
#57=ORIENTED_EDGE('',*,*,#56,.F.);
#58=ORIENTED_EDGE('',*,*,#42,.F.);
#60=ORIENTED_EDGE('',*,*,#59,.T.);
#61=EDGE_LOOP('',(#55,#57,#58,#60));
#62=FACE_OUTER_BOUND('',#61,.F.);
#64=CARTESIAN_POINT('',(4.E-1,-4.8E0,-4.E0));
#65=DIRECTION('',(-1.E0,0.E0,0.E0));
#66=DIRECTION('',(0.E0,0.E0,1.E0));
#67=AXIS2_PLACEMENT_3D('',#64,#65,#66);
#68=PLANE('',#67);
#69=ORIENTED_EDGE('',*,*,#54,.F.);
#71=ORIENTED_EDGE('',*,*,#70,.F.);
#72=EDGE_LOOP('',(#69,#71));
#73=FACE_OUTER_BOUND('',#72,.F.);
#75=CARTESIAN_POINT('',(0.E0,0.E0,1.224646799147E-14));
#76=DIRECTION('',(1.E0,0.E0,0.E0));
#77=DIRECTION('',(0.E0,-1.E0,0.E0));
#78=AXIS2_PLACEMENT_3D('',#75,#76,#77);
#79=CYLINDRICAL_SURFACE('',#78,4.E0);
#80=ORIENTED_EDGE('',*,*,#70,.T.);
#81=ORIENTED_EDGE('',*,*,#59,.F.);
#82=ORIENTED_EDGE('',*,*,#44,.F.);
#83=ORIENTED_EDGE('',*,*,#56,.T.);
#84=EDGE_LOOP('',(#80,#81,#82,#83));
#85=FACE_OUTER_BOUND('',#84,.F.);
#87=CLOSED_SHELL('',(#48,#63,#74,#86));
#88=MANIFOLD_SOLID_BREP('',#87);
#89=CARTESIAN_POINT('',(6.E0,0.E0,1.224646799147E-14));
#90=DIRECTION('',(1.E0,0.E0,0.E0));
#91=DIRECTION('',(0.E0,-1.E0,0.E0));
#92=AXIS2_PLACEMENT_3D('',#89,#90,#91);
#94=CARTESIAN_POINT('',(6.E0,0.E0,1.224646799147E-14));
#95=DIRECTION('',(1.E0,0.E0,0.E0));
#96=DIRECTION('',(0.E0,1.E0,0.E0));
#97=AXIS2_PLACEMENT_3D('',#94,#95,#96);
#99=CARTESIAN_POINT('',(5.6E0,0.E0,1.224646799147E-14));
#100=DIRECTION('',(-1.E0,0.E0,0.E0));
#101=DIRECTION('',(0.E0,1.E0,0.E0));
#102=AXIS2_PLACEMENT_3D('',#99,#100,#101);
#104=DIRECTION('',(1.E0,0.E0,0.E0));
#105=VECTOR('',#104,4.E-1);
#106=CARTESIAN_POINT('',(5.6E0,-4.E0,1.294703307586E-14));
#107=LINE('',#106,#105);
#108=CARTESIAN_POINT('',(5.6E0,0.E0,1.224646799147E-14));
#109=DIRECTION('',(-1.E0,0.E0,0.E0));
#110=DIRECTION('',(0.E0,-1.E0,0.E0));
#111=AXIS2_PLACEMENT_3D('',#108,#109,#110);
#113=DIRECTION('',(1.E0,0.E0,0.E0));
#114=VECTOR('',#113,4.E-1);
#115=CARTESIAN_POINT('',(5.6E0,4.E0,1.168651266658E-14));
#116=LINE('',#115,#114);
#117=CARTESIAN_POINT('',(6.E0,-4.E0,1.273632671113E-14));
#118=CARTESIAN_POINT('',(6.E0,4.E0,1.126675055216E-14));
#119=VERTEX_POINT('',#117);
#120=VERTEX_POINT('',#118);
#121=CARTESIAN_POINT('',(5.6E0,4.E0,1.154631945610E-14));
#122=CARTESIAN_POINT('',(5.6E0,-4.E0,1.245675780719E-14));
#123=VERTEX_POINT('',#121);
#124=VERTEX_POINT('',#122);
#125=CARTESIAN_POINT('',(6.E0,0.E0,0.E0));
#126=DIRECTION('',(1.E0,0.E0,0.E0));
#127=DIRECTION('',(0.E0,-1.E0,0.E0));
#128=AXIS2_PLACEMENT_3D('',#125,#126,#127);
#129=PLANE('',#128);
#131=ORIENTED_EDGE('',*,*,#130,.F.);
#133=ORIENTED_EDGE('',*,*,#132,.F.);
#134=EDGE_LOOP('',(#131,#133));
#135=FACE_OUTER_BOUND('',#134,.F.);
#137=CARTESIAN_POINT('',(0.E0,0.E0,1.224646799147E-14));
#138=DIRECTION('',(1.E0,0.E0,0.E0));
#139=DIRECTION('',(0.E0,-1.E0,0.E0));
#140=AXIS2_PLACEMENT_3D('',#137,#138,#139);
#141=CYLINDRICAL_SURFACE('',#140,4.E0);
#143=ORIENTED_EDGE('',*,*,#142,.T.);
#145=ORIENTED_EDGE('',*,*,#144,.T.);
#146=ORIENTED_EDGE('',*,*,#130,.T.);
#148=ORIENTED_EDGE('',*,*,#147,.F.);
#149=EDGE_LOOP('',(#143,#145,#146,#148));
#150=FACE_OUTER_BOUND('',#149,.F.);
#152=CARTESIAN_POINT('',(5.6E0,-4.8E0,4.E0));
#153=DIRECTION('',(1.E0,0.E0,0.E0));
#154=DIRECTION('',(0.E0,0.E0,-1.E0));
#155=AXIS2_PLACEMENT_3D('',#152,#153,#154);
#156=PLANE('',#155);
#157=ORIENTED_EDGE('',*,*,#142,.F.);
#159=ORIENTED_EDGE('',*,*,#158,.F.);
#160=EDGE_LOOP('',(#157,#159));
#161=FACE_OUTER_BOUND('',#160,.F.);
#163=CARTESIAN_POINT('',(0.E0,0.E0,1.224646799147E-14));
#164=DIRECTION('',(1.E0,0.E0,0.E0));
#165=DIRECTION('',(0.E0,-1.E0,0.E0));
#166=AXIS2_PLACEMENT_3D('',#163,#164,#165);
#167=CYLINDRICAL_SURFACE('',#166,4.E0);
#168=ORIENTED_EDGE('',*,*,#158,.T.);
#169=ORIENTED_EDGE('',*,*,#147,.T.);
#170=ORIENTED_EDGE('',*,*,#132,.T.);
#171=ORIENTED_EDGE('',*,*,#144,.F.);
#172=EDGE_LOOP('',(#168,#169,#170,#171));
#173=FACE_OUTER_BOUND('',#172,.F.);
#175=CLOSED_SHELL('',(#136,#151,#162,#174));
#176=MANIFOLD_SOLID_BREP('',#175);
#177=CARTESIAN_POINT('',(4.5E-1,0.E0,1.224646799147E-14));
#178=DIRECTION('',(-1.E0,0.E0,0.E0));
#179=DIRECTION('',(0.E0,1.E0,0.E0));
#180=AXIS2_PLACEMENT_3D('',#177,#178,#179);
#182=DIRECTION('',(1.E0,0.E0,0.E0));
#183=VECTOR('',#182,5.1E0);
#184=CARTESIAN_POINT('',(4.5E-1,-4.E0,1.294703307586E-14));
#185=LINE('',#184,#183);
#186=CARTESIAN_POINT('',(5.55E0,0.E0,1.224646799147E-14));
#187=DIRECTION('',(1.E0,0.E0,0.E0));
#188=DIRECTION('',(0.E0,-1.E0,0.E0));
#189=AXIS2_PLACEMENT_3D('',#186,#187,#188);
#191=CARTESIAN_POINT('',(4.5E-1,0.E0,1.224646799147E-14));
#192=DIRECTION('',(-1.E0,0.E0,0.E0));
#193=DIRECTION('',(0.E0,-1.E0,0.E0));
#194=AXIS2_PLACEMENT_3D('',#191,#192,#193);
#196=DIRECTION('',(1.E0,0.E0,0.E0));
#197=VECTOR('',#196,5.1E0);
#198=CARTESIAN_POINT('',(4.5E-1,4.E0,1.168651266658E-14));
#199=LINE('',#198,#197);
#200=CARTESIAN_POINT('',(5.55E0,0.E0,1.224646799147E-14));
#201=DIRECTION('',(1.E0,0.E0,0.E0));
#202=DIRECTION('',(0.E0,1.E0,0.E0));
#203=AXIS2_PLACEMENT_3D('',#200,#201,#202);
#205=CARTESIAN_POINT('',(4.5E-1,4.E0,1.154631945610E-14));
#206=CARTESIAN_POINT('',(4.5E-1,-4.E0,1.245675780719E-14));
#207=VERTEX_POINT('',#205);
#208=VERTEX_POINT('',#206);
#209=CARTESIAN_POINT('',(5.55E0,-4.E0,1.332267629550E-14));
#210=CARTESIAN_POINT('',(5.55E0,4.E0,1.068040096779E-14));
#211=VERTEX_POINT('',#209);
#212=VERTEX_POINT('',#210);
#213=CARTESIAN_POINT('',(0.E0,0.E0,1.224646799147E-14));
#214=DIRECTION('',(1.E0,0.E0,0.E0));
#215=DIRECTION('',(0.E0,-1.E0,0.E0));
#216=AXIS2_PLACEMENT_3D('',#213,#214,#215);
#217=CYLINDRICAL_SURFACE('',#216,4.E0);
#219=ORIENTED_EDGE('',*,*,#218,.T.);
#221=ORIENTED_EDGE('',*,*,#220,.T.);
#223=ORIENTED_EDGE('',*,*,#222,.T.);
#225=ORIENTED_EDGE('',*,*,#224,.F.);
#226=EDGE_LOOP('',(#219,#221,#223,#225));
#227=FACE_OUTER_BOUND('',#226,.F.);
#229=CARTESIAN_POINT('',(4.5E-1,-4.8E0,4.E0));
#230=DIRECTION('',(1.E0,0.E0,0.E0));
#231=DIRECTION('',(0.E0,0.E0,-1.E0));
#232=AXIS2_PLACEMENT_3D('',#229,#230,#231);
#233=PLANE('',#232);
#234=ORIENTED_EDGE('',*,*,#218,.F.);
#236=ORIENTED_EDGE('',*,*,#235,.F.);
#237=EDGE_LOOP('',(#234,#236));
#238=FACE_OUTER_BOUND('',#237,.F.);
#240=CARTESIAN_POINT('',(0.E0,0.E0,1.224646799147E-14));
#241=DIRECTION('',(1.E0,0.E0,0.E0));
#242=DIRECTION('',(0.E0,-1.E0,0.E0));
#243=AXIS2_PLACEMENT_3D('',#240,#241,#242);
#244=CYLINDRICAL_SURFACE('',#243,4.E0);
#245=ORIENTED_EDGE('',*,*,#235,.T.);
#246=ORIENTED_EDGE('',*,*,#224,.T.);
#248=ORIENTED_EDGE('',*,*,#247,.T.);
#249=ORIENTED_EDGE('',*,*,#220,.F.);
#250=EDGE_LOOP('',(#245,#246,#248,#249));
#251=FACE_OUTER_BOUND('',#250,.F.);
#253=CARTESIAN_POINT('',(5.55E0,-4.8E0,-4.E0));
#254=DIRECTION('',(-1.E0,0.E0,0.E0));
#255=DIRECTION('',(0.E0,0.E0,1.E0));
#256=AXIS2_PLACEMENT_3D('',#253,#254,#255);
#257=PLANE('',#256);
#258=ORIENTED_EDGE('',*,*,#222,.F.);
#259=ORIENTED_EDGE('',*,*,#247,.F.);
#260=EDGE_LOOP('',(#258,#259));
#261=FACE_OUTER_BOUND('',#260,.F.);
#263=CLOSED_SHELL('',(#228,#239,#252,#262));
#264=MANIFOLD_SOLID_BREP('',#263);
#266=DIMENSIONAL_EXPONENTS(0.E0,0.E0,0.E0,0.E0,0.E0,0.E0,0.E0);
#268=PLANE_ANGLE_MEASURE_WITH_UNIT(PLANE_ANGLE_MEASURE(1.745329251994E-2),#267);
#269=(CONVERSION_BASED_UNIT('DEGREE',#268)NAMED_UNIT(*)PLANE_ANGLE_UNIT());
#271=UNCERTAINTY_MEASURE_WITH_UNIT(LENGTH_MEASURE(5.336425831421E-4),#265,
'closure',
'Maximum model space distance between geometric entities at asserted connectivities');
#274=APPLICATION_CONTEXT(
'CONFIGURATION CONTROLLED 3D DESIGNS OF MECHANICAL PARTS AND ASSEMBLIES');
#275=APPLICATION_PROTOCOL_DEFINITION('international standard',
'config_control_design',1994,#274);
#276=DESIGN_CONTEXT('',#274,'design');
#277=MECHANICAL_CONTEXT('',#274,'mechanical');
#278=PRODUCT('2027-XX-A','2027-XX-A','NOT SPECIFIED',(#277));
#279=PRODUCT_DEFINITION_FORMATION_WITH_SPECIFIED_SOURCE('2','LAST_VERSION',#278,
.MADE.);
#283=PRODUCT_CATEGORY('part','');
#284=PRODUCT_RELATED_PRODUCT_CATEGORY('detail','',(#278));
#285=PRODUCT_CATEGORY_RELATIONSHIP('','',#283,#284);
#286=SECURITY_CLASSIFICATION_LEVEL('unclassified');
#287=SECURITY_CLASSIFICATION('','',#286);
#288=CC_DESIGN_SECURITY_CLASSIFICATION(#287,(#279));
#289=APPROVAL_STATUS('approved');
#290=APPROVAL(#289,'');
#291=CC_DESIGN_APPROVAL(#290,(#287,#279,#280));
#292=CALENDAR_DATE(112,3,8);
#293=COORDINATED_UNIVERSAL_TIME_OFFSET(7,0,.BEHIND.);
#294=LOCAL_TIME(10,55,5.1E1,#293);
#295=DATE_AND_TIME(#292,#294);
#296=APPROVAL_DATE_TIME(#295,#290);
#297=DATE_TIME_ROLE('creation_date');
#298=CC_DESIGN_DATE_AND_TIME_ASSIGNMENT(#295,#297,(#280));
#299=DATE_TIME_ROLE('classification_date');
#300=CC_DESIGN_DATE_AND_TIME_ASSIGNMENT(#295,#299,(#287));
#301=PERSON('UNSPECIFIED','UNSPECIFIED',$,$,$,$);
#302=ORGANIZATION('UNSPECIFIED','UNSPECIFIED','UNSPECIFIED');
#303=PERSON_AND_ORGANIZATION(#301,#302);
#304=APPROVAL_ROLE('approver');
#305=APPROVAL_PERSON_ORGANIZATION(#303,#290,#304);
#306=PERSON_AND_ORGANIZATION_ROLE('creator');
#307=CC_DESIGN_PERSON_AND_ORGANIZATION_ASSIGNMENT(#303,#306,(#279,#280));
#308=PERSON_AND_ORGANIZATION_ROLE('design_supplier');
#309=CC_DESIGN_PERSON_AND_ORGANIZATION_ASSIGNMENT(#303,#308,(#279));
#310=PERSON_AND_ORGANIZATION_ROLE('classification_officer');
#311=CC_DESIGN_PERSON_AND_ORGANIZATION_ASSIGNMENT(#303,#310,(#287));
#312=PERSON_AND_ORGANIZATION_ROLE('design_owner');
#313=CC_DESIGN_PERSON_AND_ORGANIZATION_ASSIGNMENT(#303,#312,(#278));
#5=CIRCLE('',#4,4.E0);
#10=CIRCLE('',#9,4.E0);
#15=CIRCLE('',#14,4.E0);
#24=CIRCLE('',#23,4.E0);
#42=EDGE_CURVE('',#31,#32,#5,.T.);
#44=EDGE_CURVE('',#32,#31,#10,.T.);
#48=ADVANCED_FACE('',(#47),#41,.F.);
#54=EDGE_CURVE('',#35,#36,#15,.T.);
#56=EDGE_CURVE('',#32,#36,#28,.T.);
#59=EDGE_CURVE('',#31,#35,#19,.T.);
#63=ADVANCED_FACE('',(#62),#53,.T.);
#70=EDGE_CURVE('',#36,#35,#24,.T.);
#74=ADVANCED_FACE('',(#73),#68,.F.);
#86=ADVANCED_FACE('',(#85),#79,.T.);
#93=CIRCLE('',#92,4.E0);
#98=CIRCLE('',#97,4.E0);
#103=CIRCLE('',#102,4.E0);
#112=CIRCLE('',#111,4.E0);
#130=EDGE_CURVE('',#119,#120,#93,.T.);
#132=EDGE_CURVE('',#120,#119,#98,.T.);
#136=ADVANCED_FACE('',(#135),#129,.T.);
#142=EDGE_CURVE('',#123,#124,#103,.T.);
#144=EDGE_CURVE('',#124,#119,#107,.T.);
#147=EDGE_CURVE('',#123,#120,#116,.T.);
#151=ADVANCED_FACE('',(#150),#141,.T.);
#158=EDGE_CURVE('',#124,#123,#112,.T.);
#162=ADVANCED_FACE('',(#161),#156,.F.);
#174=ADVANCED_FACE('',(#173),#167,.T.);
#181=CIRCLE('',#180,4.E0);
#190=CIRCLE('',#189,4.E0);
#195=CIRCLE('',#194,4.E0);
#204=CIRCLE('',#203,4.E0);
#218=EDGE_CURVE('',#207,#208,#181,.T.);
#220=EDGE_CURVE('',#208,#211,#185,.T.);
#222=EDGE_CURVE('',#211,#212,#190,.T.);
#224=EDGE_CURVE('',#207,#212,#199,.T.);
#228=ADVANCED_FACE('',(#227),#217,.T.);
#235=EDGE_CURVE('',#208,#207,#195,.T.);
#239=ADVANCED_FACE('',(#238),#233,.F.);
#247=EDGE_CURVE('',#212,#211,#204,.T.);
#252=ADVANCED_FACE('',(#251),#244,.T.);
#262=ADVANCED_FACE('',(#261),#257,.F.);
#265=(LENGTH_UNIT()NAMED_UNIT(*)SI_UNIT(.MILLI.,.METRE.));
#267=(NAMED_UNIT(*)PLANE_ANGLE_UNIT()SI_UNIT($,.RADIAN.));
#270=(NAMED_UNIT(*)SI_UNIT($,.STERADIAN.)SOLID_ANGLE_UNIT());
#272=(GEOMETRIC_REPRESENTATION_CONTEXT(3)GLOBAL_UNCERTAINTY_ASSIGNED_CONTEXT((
#271))GLOBAL_UNIT_ASSIGNED_CONTEXT((#265,#269,#270))REPRESENTATION_CONTEXT
('ID1','3'));
#273=ADVANCED_BREP_SHAPE_REPRESENTATION('',(#88,#176,#264),#272);
#280=PRODUCT_DEFINITION('design','',#279,#276);
#281=PRODUCT_DEFINITION_SHAPE('','SHAPE FOR 2027-XX-A.',#280);
#282=SHAPE_DEFINITION_REPRESENTATION(#281,#273);
ENDSEC;
END-ISO-10303-21;
