ISO-10303-21;
HEADER;
FILE_DESCRIPTION((''),'2;1');
FILE_NAME('1965_SERIES','2012-08-24T',('ryans'),('Bourns, Inc.'),
'PRO/ENGINEER BY PARAMETRIC TECHNOLOGY CORPORATION, 2010100',
'PRO/ENGINEER BY PARAMETRIC TECHNOLOGY CORPORATION, 2010100','');
FILE_SCHEMA(('CONFIG_CONTROL_DESIGN'));
ENDSEC;
DATA;
#1=DIRECTION('',(0.E0,0.E0,1.E0));
#2=VECTOR('',#1,4.6E1);
#3=CARTESIAN_POINT('',(-2.85E1,0.E0,-2.3E1));
#4=LINE('',#3,#2);
#5=DIRECTION('',(1.E0,0.E0,0.E0));
#6=VECTOR('',#5,5.7E1);
#7=CARTESIAN_POINT('',(-2.85E1,0.E0,2.3E1));
#8=LINE('',#7,#6);
#9=DIRECTION('',(0.E0,0.E0,-1.E0));
#10=VECTOR('',#9,4.6E1);
#11=CARTESIAN_POINT('',(2.85E1,0.E0,2.3E1));
#12=LINE('',#11,#10);
#13=DIRECTION('',(-1.E0,0.E0,0.E0));
#14=VECTOR('',#13,5.7E1);
#15=CARTESIAN_POINT('',(2.85E1,0.E0,-2.3E1));
#16=LINE('',#15,#14);
#17=CARTESIAN_POINT('',(2.05E1,0.E0,-1.77E1));
#18=DIRECTION('',(0.E0,1.E0,0.E0));
#19=DIRECTION('',(1.E0,0.E0,0.E0));
#20=AXIS2_PLACEMENT_3D('',#17,#18,#19);
#22=CARTESIAN_POINT('',(2.05E1,0.E0,-1.77E1));
#23=DIRECTION('',(0.E0,1.E0,0.E0));
#24=DIRECTION('',(-1.E0,0.E0,0.E0));
#25=AXIS2_PLACEMENT_3D('',#22,#23,#24);
#27=CARTESIAN_POINT('',(-2.05E1,0.E0,-1.77E1));
#28=DIRECTION('',(0.E0,1.E0,0.E0));
#29=DIRECTION('',(1.E0,0.E0,0.E0));
#30=AXIS2_PLACEMENT_3D('',#27,#28,#29);
#32=CARTESIAN_POINT('',(-2.05E1,0.E0,-1.77E1));
#33=DIRECTION('',(0.E0,1.E0,0.E0));
#34=DIRECTION('',(-1.E0,0.E0,0.E0));
#35=AXIS2_PLACEMENT_3D('',#32,#33,#34);
#37=DIRECTION('',(0.E0,1.E0,0.E0));
#38=VECTOR('',#37,3.2E1);
#39=CARTESIAN_POINT('',(-2.85E1,3.3E0,-1.234538035016E1));
#40=LINE('',#39,#38);
#41=DIRECTION('',(0.E0,1.E0,0.E0));
#42=VECTOR('',#41,3.3E0);
#43=CARTESIAN_POINT('',(-2.85E1,0.E0,-2.3E1));
#44=LINE('',#43,#42);
#45=CARTESIAN_POINT('',(-2.85E1,1.765E1,5.327309824920E0));
#46=DIRECTION('',(-1.E0,0.E0,0.E0));
#47=DIRECTION('',(0.E0,0.E0,-1.E0));
#48=AXIS2_PLACEMENT_3D('',#45,#46,#47);
#50=CARTESIAN_POINT('',(-2.85E1,1.765E1,5.327309824920E0));
#51=DIRECTION('',(-1.E0,0.E0,0.E0));
#52=DIRECTION('',(0.E0,0.E0,1.E0));
#53=AXIS2_PLACEMENT_3D('',#50,#51,#52);
#55=CARTESIAN_POINT('',(2.05E1,3.3E0,-1.77E1));
#56=DIRECTION('',(0.E0,1.E0,0.E0));
#57=DIRECTION('',(1.E0,0.E0,0.E0));
#58=AXIS2_PLACEMENT_3D('',#55,#56,#57);
#60=CARTESIAN_POINT('',(2.05E1,3.3E0,-1.77E1));
#61=DIRECTION('',(0.E0,1.E0,0.E0));
#62=DIRECTION('',(-1.E0,0.E0,0.E0));
#63=AXIS2_PLACEMENT_3D('',#60,#61,#62);
#65=CARTESIAN_POINT('',(-2.05E1,3.3E0,-1.77E1));
#66=DIRECTION('',(0.E0,1.E0,0.E0));
#67=DIRECTION('',(1.E0,0.E0,0.E0));
#68=AXIS2_PLACEMENT_3D('',#65,#66,#67);
#70=CARTESIAN_POINT('',(-2.05E1,3.3E0,-1.77E1));
#71=DIRECTION('',(0.E0,1.E0,0.E0));
#72=DIRECTION('',(-1.E0,0.E0,0.E0));
#73=AXIS2_PLACEMENT_3D('',#70,#71,#72);
#75=DIRECTION('',(1.E0,0.E0,0.E0));
#76=VECTOR('',#75,5.7E1);
#77=CARTESIAN_POINT('',(-2.85E1,3.3E0,-1.234538035016E1));
#78=LINE('',#77,#76);
#79=DIRECTION('',(0.E0,0.E0,1.E0));
#80=VECTOR('',#79,1.065461964984E1);
#81=CARTESIAN_POINT('',(-2.85E1,3.3E0,-2.3E1));
#82=LINE('',#81,#80);
#83=DIRECTION('',(-1.E0,0.E0,0.E0));
#84=VECTOR('',#83,5.7E1);
#85=CARTESIAN_POINT('',(2.85E1,3.3E0,-2.3E1));
#86=LINE('',#85,#84);
#87=DIRECTION('',(0.E0,0.E0,-1.E0));
#88=VECTOR('',#87,1.065461964984E1);
#89=CARTESIAN_POINT('',(2.85E1,3.3E0,-1.234538035016E1));
#90=LINE('',#89,#88);
#91=DIRECTION('',(0.E0,-1.E0,0.E0));
#92=VECTOR('',#91,3.3E0);
#93=CARTESIAN_POINT('',(2.275E1,3.3E0,-1.77E1));
#94=LINE('',#93,#92);
#95=DIRECTION('',(0.E0,-1.E0,0.E0));
#96=VECTOR('',#95,3.3E0);
#97=CARTESIAN_POINT('',(1.825E1,3.3E0,-1.77E1));
#98=LINE('',#97,#96);
#99=DIRECTION('',(0.E0,-1.E0,0.E0));
#100=VECTOR('',#99,3.3E0);
#101=CARTESIAN_POINT('',(-1.825E1,3.3E0,-1.77E1));
#102=LINE('',#101,#100);
#103=DIRECTION('',(0.E0,-1.E0,0.E0));
#104=VECTOR('',#103,3.3E0);
#105=CARTESIAN_POINT('',(-2.275E1,3.3E0,-1.77E1));
#106=LINE('',#105,#104);
#107=DIRECTION('',(0.E0,1.E0,0.E0));
#108=VECTOR('',#107,3.2E1);
#109=CARTESIAN_POINT('',(2.85E1,3.3E0,-1.234538035016E1));
#110=LINE('',#109,#108);
#111=DIRECTION('',(0.E0,1.E0,0.E0));
#112=VECTOR('',#111,3.53E1);
#113=CARTESIAN_POINT('',(2.85E1,0.E0,2.3E1));
#114=LINE('',#113,#112);
#115=CARTESIAN_POINT('',(2.85E1,1.765E1,5.327309824920E0));
#116=DIRECTION('',(-1.E0,0.E0,0.E0));
#117=DIRECTION('',(0.E0,0.E0,-1.E0));
#118=AXIS2_PLACEMENT_3D('',#115,#116,#117);
#120=CARTESIAN_POINT('',(2.85E1,1.765E1,5.327309824920E0));
#121=DIRECTION('',(-1.E0,0.E0,0.E0));
#122=DIRECTION('',(0.E0,0.E0,1.E0));
#123=AXIS2_PLACEMENT_3D('',#120,#121,#122);
#125=DIRECTION('',(0.E0,1.E0,0.E0));
#126=VECTOR('',#125,3.53E1);
#127=CARTESIAN_POINT('',(-2.85E1,0.E0,2.3E1));
#128=LINE('',#127,#126);
#129=DIRECTION('',(0.E0,0.E0,1.E0));
#130=VECTOR('',#129,3.534538035016E1);
#131=CARTESIAN_POINT('',(-2.85E1,3.53E1,-1.234538035016E1));
#132=LINE('',#131,#130);
#133=DIRECTION('',(-1.E0,0.E0,0.E0));
#134=VECTOR('',#133,5.7E1);
#135=CARTESIAN_POINT('',(2.85E1,3.53E1,-1.234538035016E1));
#136=LINE('',#135,#134);
#137=DIRECTION('',(0.E0,0.E0,-1.E0));
#138=VECTOR('',#137,3.534538035016E1);
#139=CARTESIAN_POINT('',(2.85E1,3.53E1,2.3E1));
#140=LINE('',#139,#138);
#141=DIRECTION('',(1.E0,0.E0,0.E0));
#142=VECTOR('',#141,5.7E1);
#143=CARTESIAN_POINT('',(-2.85E1,3.53E1,2.3E1));
#144=LINE('',#143,#142);
#145=DIRECTION('',(0.E0,1.E0,0.E0));
#146=VECTOR('',#145,3.3E0);
#147=CARTESIAN_POINT('',(2.85E1,0.E0,-2.3E1));
#148=LINE('',#147,#146);
#149=DIRECTION('',(-1.E0,0.E0,0.E0));
#150=VECTOR('',#149,7.E0);
#151=CARTESIAN_POINT('',(-2.85E1,1.765E1,-1.019708677510E0));
#152=LINE('',#151,#150);
#153=DIRECTION('',(-1.E0,0.E0,0.E0));
#154=VECTOR('',#153,7.E0);
#155=CARTESIAN_POINT('',(3.55E1,1.765E1,-1.019708677510E0));
#156=LINE('',#155,#154);
#157=DIRECTION('',(-1.E0,0.E0,0.E0));
#158=VECTOR('',#157,7.E0);
#159=CARTESIAN_POINT('',(-2.85E1,1.765E1,1.167432832735E1));
#160=LINE('',#159,#158);
#161=DIRECTION('',(-1.E0,0.E0,0.E0));
#162=VECTOR('',#161,7.E0);
#163=CARTESIAN_POINT('',(3.55E1,1.765E1,1.167432832735E1));
#164=LINE('',#163,#162);
#165=CARTESIAN_POINT('',(-3.55E1,1.765E1,5.327309824920E0));
#166=DIRECTION('',(-1.E0,0.E0,0.E0));
#167=DIRECTION('',(0.E0,0.E0,-1.E0));
#168=AXIS2_PLACEMENT_3D('',#165,#166,#167);
#170=CARTESIAN_POINT('',(-3.55E1,1.765E1,5.327309824920E0));
#171=DIRECTION('',(-1.E0,0.E0,0.E0));
#172=DIRECTION('',(0.E0,0.E0,1.E0));
#173=AXIS2_PLACEMENT_3D('',#170,#171,#172);
#175=CARTESIAN_POINT('',(3.55E1,1.765E1,5.327309824920E0));
#176=DIRECTION('',(-1.E0,0.E0,0.E0));
#177=DIRECTION('',(0.E0,0.E0,-1.E0));
#178=AXIS2_PLACEMENT_3D('',#175,#176,#177);
#180=CARTESIAN_POINT('',(3.55E1,1.765E1,5.327309824920E0));
#181=DIRECTION('',(-1.E0,0.E0,0.E0));
#182=DIRECTION('',(0.E0,0.E0,1.E0));
#183=AXIS2_PLACEMENT_3D('',#180,#181,#182);
#185=CARTESIAN_POINT('',(-2.85E1,0.E0,-2.3E1));
#186=CARTESIAN_POINT('',(-2.85E1,0.E0,2.3E1));
#187=VERTEX_POINT('',#185);
#188=VERTEX_POINT('',#186);
#189=CARTESIAN_POINT('',(2.85E1,0.E0,2.3E1));
#190=VERTEX_POINT('',#189);
#191=CARTESIAN_POINT('',(2.85E1,0.E0,-2.3E1));
#192=VERTEX_POINT('',#191);
#193=CARTESIAN_POINT('',(2.85E1,3.3E0,-2.3E1));
#194=CARTESIAN_POINT('',(-2.85E1,3.3E0,-2.3E1));
#195=VERTEX_POINT('',#193);
#196=VERTEX_POINT('',#194);
#197=CARTESIAN_POINT('',(2.275E1,0.E0,-1.77E1));
#198=CARTESIAN_POINT('',(1.825E1,0.E0,-1.77E1));
#199=VERTEX_POINT('',#197);
#200=VERTEX_POINT('',#198);
#201=CARTESIAN_POINT('',(-1.825E1,0.E0,-1.77E1));
#202=CARTESIAN_POINT('',(-2.275E1,0.E0,-1.77E1));
#203=VERTEX_POINT('',#201);
#204=VERTEX_POINT('',#202);
#205=CARTESIAN_POINT('',(2.275E1,3.3E0,-1.77E1));
#206=CARTESIAN_POINT('',(1.825E1,3.3E0,-1.77E1));
#207=VERTEX_POINT('',#205);
#208=VERTEX_POINT('',#206);
#209=CARTESIAN_POINT('',(-1.825E1,3.3E0,-1.77E1));
#210=CARTESIAN_POINT('',(-2.275E1,3.3E0,-1.77E1));
#211=VERTEX_POINT('',#209);
#212=VERTEX_POINT('',#210);
#213=CARTESIAN_POINT('',(-2.85E1,3.53E1,-1.234538035016E1));
#214=CARTESIAN_POINT('',(-2.85E1,3.53E1,2.3E1));
#215=VERTEX_POINT('',#213);
#216=VERTEX_POINT('',#214);
#217=CARTESIAN_POINT('',(2.85E1,3.53E1,2.3E1));
#218=VERTEX_POINT('',#217);
#219=CARTESIAN_POINT('',(2.85E1,3.53E1,-1.234538035016E1));
#220=VERTEX_POINT('',#219);
#221=CARTESIAN_POINT('',(-2.85E1,3.3E0,-1.234538035016E1));
#222=CARTESIAN_POINT('',(2.85E1,3.3E0,-1.234538035016E1));
#223=VERTEX_POINT('',#221);
#224=VERTEX_POINT('',#222);
#225=CARTESIAN_POINT('',(3.55E1,1.765E1,-1.019708677510E0));
#226=CARTESIAN_POINT('',(3.55E1,1.765E1,1.167432832735E1));
#227=VERTEX_POINT('',#225);
#228=VERTEX_POINT('',#226);
#229=CARTESIAN_POINT('',(-3.55E1,1.765E1,-1.019708677510E0));
#230=CARTESIAN_POINT('',(-3.55E1,1.765E1,1.167432832735E1));
#231=VERTEX_POINT('',#229);
#232=VERTEX_POINT('',#230);
#233=CARTESIAN_POINT('',(-2.85E1,1.765E1,-1.019708677510E0));
#234=CARTESIAN_POINT('',(-2.85E1,1.765E1,1.167432832735E1));
#235=VERTEX_POINT('',#233);
#236=VERTEX_POINT('',#234);
#237=CARTESIAN_POINT('',(2.85E1,1.765E1,-1.019708677510E0));
#238=CARTESIAN_POINT('',(2.85E1,1.765E1,1.167432832735E1));
#239=VERTEX_POINT('',#237);
#240=VERTEX_POINT('',#238);
#241=CARTESIAN_POINT('',(0.E0,0.E0,0.E0));
#242=DIRECTION('',(0.E0,1.E0,0.E0));
#243=DIRECTION('',(1.E0,0.E0,0.E0));
#244=AXIS2_PLACEMENT_3D('',#241,#242,#243);
#245=PLANE('',#244);
#247=ORIENTED_EDGE('',*,*,#246,.T.);
#249=ORIENTED_EDGE('',*,*,#248,.T.);
#251=ORIENTED_EDGE('',*,*,#250,.T.);
#253=ORIENTED_EDGE('',*,*,#252,.T.);
#254=EDGE_LOOP('',(#247,#249,#251,#253));
#255=FACE_OUTER_BOUND('',#254,.F.);
#257=ORIENTED_EDGE('',*,*,#256,.F.);
#259=ORIENTED_EDGE('',*,*,#258,.F.);
#260=EDGE_LOOP('',(#257,#259));
#261=FACE_BOUND('',#260,.F.);
#263=ORIENTED_EDGE('',*,*,#262,.F.);
#265=ORIENTED_EDGE('',*,*,#264,.F.);
#266=EDGE_LOOP('',(#263,#265));
#267=FACE_BOUND('',#266,.F.);
#269=CARTESIAN_POINT('',(-2.85E1,0.E0,-2.3E1));
#270=DIRECTION('',(-1.E0,0.E0,0.E0));
#271=DIRECTION('',(0.E0,0.E0,1.E0));
#272=AXIS2_PLACEMENT_3D('',#269,#270,#271);
#273=PLANE('',#272);
#275=ORIENTED_EDGE('',*,*,#274,.T.);
#277=ORIENTED_EDGE('',*,*,#276,.T.);
#279=ORIENTED_EDGE('',*,*,#278,.T.);
#281=ORIENTED_EDGE('',*,*,#280,.F.);
#282=ORIENTED_EDGE('',*,*,#246,.F.);
#284=ORIENTED_EDGE('',*,*,#283,.T.);
#285=EDGE_LOOP('',(#275,#277,#279,#281,#282,#284));
#286=FACE_OUTER_BOUND('',#285,.F.);
#288=ORIENTED_EDGE('',*,*,#287,.T.);
#290=ORIENTED_EDGE('',*,*,#289,.T.);
#291=EDGE_LOOP('',(#288,#290));
#292=FACE_BOUND('',#291,.F.);
#294=CARTESIAN_POINT('',(0.E0,3.3E0,0.E0));
#295=DIRECTION('',(0.E0,1.E0,0.E0));
#296=DIRECTION('',(1.E0,0.E0,0.E0));
#297=AXIS2_PLACEMENT_3D('',#294,#295,#296);
#298=PLANE('',#297);
#300=ORIENTED_EDGE('',*,*,#299,.F.);
#301=ORIENTED_EDGE('',*,*,#274,.F.);
#303=ORIENTED_EDGE('',*,*,#302,.F.);
#305=ORIENTED_EDGE('',*,*,#304,.F.);
#306=EDGE_LOOP('',(#300,#301,#303,#305));
#307=FACE_OUTER_BOUND('',#306,.F.);
#309=ORIENTED_EDGE('',*,*,#308,.T.);
#311=ORIENTED_EDGE('',*,*,#310,.T.);
#312=EDGE_LOOP('',(#309,#311));
#313=FACE_BOUND('',#312,.F.);
#315=ORIENTED_EDGE('',*,*,#314,.T.);
#317=ORIENTED_EDGE('',*,*,#316,.T.);
#318=EDGE_LOOP('',(#315,#317));
#319=FACE_BOUND('',#318,.F.);
#321=CARTESIAN_POINT('',(2.05E1,3.3E0,-1.77E1));
#322=DIRECTION('',(0.E0,1.E0,0.E0));
#323=DIRECTION('',(1.E0,0.E0,0.E0));
#324=AXIS2_PLACEMENT_3D('',#321,#322,#323);
#325=CYLINDRICAL_SURFACE('',#324,2.25E0);
#326=ORIENTED_EDGE('',*,*,#256,.T.);
#328=ORIENTED_EDGE('',*,*,#327,.F.);
#329=ORIENTED_EDGE('',*,*,#314,.F.);
#331=ORIENTED_EDGE('',*,*,#330,.T.);
#332=EDGE_LOOP('',(#326,#328,#329,#331));
#333=FACE_OUTER_BOUND('',#332,.F.);
#335=CARTESIAN_POINT('',(2.05E1,3.3E0,-1.77E1));
#336=DIRECTION('',(0.E0,1.E0,0.E0));
#337=DIRECTION('',(1.E0,0.E0,0.E0));
#338=AXIS2_PLACEMENT_3D('',#335,#336,#337);
#339=CYLINDRICAL_SURFACE('',#338,2.25E0);
#340=ORIENTED_EDGE('',*,*,#258,.T.);
#341=ORIENTED_EDGE('',*,*,#330,.F.);
#342=ORIENTED_EDGE('',*,*,#316,.F.);
#343=ORIENTED_EDGE('',*,*,#327,.T.);
#344=EDGE_LOOP('',(#340,#341,#342,#343));
#345=FACE_OUTER_BOUND('',#344,.F.);
#347=CARTESIAN_POINT('',(-2.05E1,3.3E0,-1.77E1));
#348=DIRECTION('',(0.E0,1.E0,0.E0));
#349=DIRECTION('',(1.E0,0.E0,0.E0));
#350=AXIS2_PLACEMENT_3D('',#347,#348,#349);
#351=CYLINDRICAL_SURFACE('',#350,2.25E0);
#352=ORIENTED_EDGE('',*,*,#262,.T.);
#354=ORIENTED_EDGE('',*,*,#353,.F.);
#355=ORIENTED_EDGE('',*,*,#308,.F.);
#357=ORIENTED_EDGE('',*,*,#356,.T.);
#358=EDGE_LOOP('',(#352,#354,#355,#357));
#359=FACE_OUTER_BOUND('',#358,.F.);
#361=CARTESIAN_POINT('',(-2.05E1,3.3E0,-1.77E1));
#362=DIRECTION('',(0.E0,1.E0,0.E0));
#363=DIRECTION('',(1.E0,0.E0,0.E0));
#364=AXIS2_PLACEMENT_3D('',#361,#362,#363);
#365=CYLINDRICAL_SURFACE('',#364,2.25E0);
#366=ORIENTED_EDGE('',*,*,#264,.T.);
#367=ORIENTED_EDGE('',*,*,#356,.F.);
#368=ORIENTED_EDGE('',*,*,#310,.F.);
#369=ORIENTED_EDGE('',*,*,#353,.T.);
#370=EDGE_LOOP('',(#366,#367,#368,#369));
#371=FACE_OUTER_BOUND('',#370,.F.);
#373=CARTESIAN_POINT('',(2.85E1,3.3E0,-1.234538035016E1));
#374=DIRECTION('',(0.E0,0.E0,-1.E0));
#375=DIRECTION('',(-1.E0,0.E0,0.E0));
#376=AXIS2_PLACEMENT_3D('',#373,#374,#375);
#377=PLANE('',#376);
#378=ORIENTED_EDGE('',*,*,#299,.T.);
#380=ORIENTED_EDGE('',*,*,#379,.T.);
#382=ORIENTED_EDGE('',*,*,#381,.T.);
#383=ORIENTED_EDGE('',*,*,#276,.F.);
#384=EDGE_LOOP('',(#378,#380,#382,#383));
#385=FACE_OUTER_BOUND('',#384,.F.);
#387=CARTESIAN_POINT('',(2.85E1,0.E0,2.3E1));
#388=DIRECTION('',(1.E0,0.E0,0.E0));
#389=DIRECTION('',(0.E0,0.E0,-1.E0));
#390=AXIS2_PLACEMENT_3D('',#387,#388,#389);
#391=PLANE('',#390);
#393=ORIENTED_EDGE('',*,*,#392,.T.);
#395=ORIENTED_EDGE('',*,*,#394,.T.);
#396=ORIENTED_EDGE('',*,*,#379,.F.);
#397=ORIENTED_EDGE('',*,*,#304,.T.);
#399=ORIENTED_EDGE('',*,*,#398,.F.);
#400=ORIENTED_EDGE('',*,*,#250,.F.);
#401=EDGE_LOOP('',(#393,#395,#396,#397,#399,#400));
#402=FACE_OUTER_BOUND('',#401,.F.);
#404=ORIENTED_EDGE('',*,*,#403,.F.);
#406=ORIENTED_EDGE('',*,*,#405,.F.);
#407=EDGE_LOOP('',(#404,#406));
#408=FACE_BOUND('',#407,.F.);
#410=CARTESIAN_POINT('',(-2.85E1,0.E0,2.3E1));
#411=DIRECTION('',(0.E0,0.E0,1.E0));
#412=DIRECTION('',(1.E0,0.E0,0.E0));
#413=AXIS2_PLACEMENT_3D('',#410,#411,#412);
#414=PLANE('',#413);
#415=ORIENTED_EDGE('',*,*,#280,.T.);
#417=ORIENTED_EDGE('',*,*,#416,.T.);
#418=ORIENTED_EDGE('',*,*,#392,.F.);
#419=ORIENTED_EDGE('',*,*,#248,.F.);
#420=EDGE_LOOP('',(#415,#417,#418,#419));
#421=FACE_OUTER_BOUND('',#420,.F.);
#423=CARTESIAN_POINT('',(0.E0,3.53E1,0.E0));
#424=DIRECTION('',(0.E0,1.E0,0.E0));
#425=DIRECTION('',(1.E0,0.E0,0.E0));
#426=AXIS2_PLACEMENT_3D('',#423,#424,#425);
#427=PLANE('',#426);
#428=ORIENTED_EDGE('',*,*,#278,.F.);
#429=ORIENTED_EDGE('',*,*,#381,.F.);
#430=ORIENTED_EDGE('',*,*,#394,.F.);
#431=ORIENTED_EDGE('',*,*,#416,.F.);
#432=EDGE_LOOP('',(#428,#429,#430,#431));
#433=FACE_OUTER_BOUND('',#432,.F.);
#435=CARTESIAN_POINT('',(2.85E1,0.E0,-2.3E1));
#436=DIRECTION('',(0.E0,0.E0,-1.E0));
#437=DIRECTION('',(-1.E0,0.E0,0.E0));
#438=AXIS2_PLACEMENT_3D('',#435,#436,#437);
#439=PLANE('',#438);
#440=ORIENTED_EDGE('',*,*,#252,.F.);
#441=ORIENTED_EDGE('',*,*,#398,.T.);
#442=ORIENTED_EDGE('',*,*,#302,.T.);
#443=ORIENTED_EDGE('',*,*,#283,.F.);
#444=EDGE_LOOP('',(#440,#441,#442,#443));
#445=FACE_OUTER_BOUND('',#444,.F.);
#447=CARTESIAN_POINT('',(3.55E1,1.765E1,5.327309824920E0));
#448=DIRECTION('',(-1.E0,0.E0,0.E0));
#449=DIRECTION('',(0.E0,0.E0,-1.E0));
#450=AXIS2_PLACEMENT_3D('',#447,#448,#449);
#451=CYLINDRICAL_SURFACE('',#450,6.347018502430E0);
#452=ORIENTED_EDGE('',*,*,#287,.F.);
#454=ORIENTED_EDGE('',*,*,#453,.T.);
#456=ORIENTED_EDGE('',*,*,#455,.T.);
#458=ORIENTED_EDGE('',*,*,#457,.F.);
#459=EDGE_LOOP('',(#452,#454,#456,#458));
#460=FACE_OUTER_BOUND('',#459,.F.);
#462=CARTESIAN_POINT('',(3.55E1,1.765E1,5.327309824920E0));
#463=DIRECTION('',(-1.E0,0.E0,0.E0));
#464=DIRECTION('',(0.E0,0.E0,-1.E0));
#465=AXIS2_PLACEMENT_3D('',#462,#463,#464);
#466=CYLINDRICAL_SURFACE('',#465,6.347018502430E0);
#467=ORIENTED_EDGE('',*,*,#403,.T.);
#469=ORIENTED_EDGE('',*,*,#468,.F.);
#471=ORIENTED_EDGE('',*,*,#470,.F.);
#473=ORIENTED_EDGE('',*,*,#472,.T.);
#474=EDGE_LOOP('',(#467,#469,#471,#473));
#475=FACE_OUTER_BOUND('',#474,.F.);
#477=CARTESIAN_POINT('',(3.55E1,1.765E1,5.327309824920E0));
#478=DIRECTION('',(-1.E0,0.E0,0.E0));
#479=DIRECTION('',(0.E0,0.E0,-1.E0));
#480=AXIS2_PLACEMENT_3D('',#477,#478,#479);
#481=CYLINDRICAL_SURFACE('',#480,6.347018502430E0);
#482=ORIENTED_EDGE('',*,*,#289,.F.);
#483=ORIENTED_EDGE('',*,*,#457,.T.);
#485=ORIENTED_EDGE('',*,*,#484,.T.);
#486=ORIENTED_EDGE('',*,*,#453,.F.);
#487=EDGE_LOOP('',(#482,#483,#485,#486));
#488=FACE_OUTER_BOUND('',#487,.F.);
#490=CARTESIAN_POINT('',(3.55E1,1.765E1,5.327309824920E0));
#491=DIRECTION('',(-1.E0,0.E0,0.E0));
#492=DIRECTION('',(0.E0,0.E0,-1.E0));
#493=AXIS2_PLACEMENT_3D('',#490,#491,#492);
#494=CYLINDRICAL_SURFACE('',#493,6.347018502430E0);
#495=ORIENTED_EDGE('',*,*,#405,.T.);
#496=ORIENTED_EDGE('',*,*,#472,.F.);
#498=ORIENTED_EDGE('',*,*,#497,.F.);
#499=ORIENTED_EDGE('',*,*,#468,.T.);
#500=EDGE_LOOP('',(#495,#496,#498,#499));
#501=FACE_OUTER_BOUND('',#500,.F.);
#503=CARTESIAN_POINT('',(-3.55E1,0.E0,0.E0));
#504=DIRECTION('',(-1.E0,0.E0,0.E0));
#505=DIRECTION('',(0.E0,0.E0,-1.E0));
#506=AXIS2_PLACEMENT_3D('',#503,#504,#505);
#507=PLANE('',#506);
#508=ORIENTED_EDGE('',*,*,#455,.F.);
#509=ORIENTED_EDGE('',*,*,#484,.F.);
#510=EDGE_LOOP('',(#508,#509));
#511=FACE_OUTER_BOUND('',#510,.F.);
#513=CARTESIAN_POINT('',(3.55E1,0.E0,0.E0));
#514=DIRECTION('',(-1.E0,0.E0,0.E0));
#515=DIRECTION('',(0.E0,0.E0,-1.E0));
#516=AXIS2_PLACEMENT_3D('',#513,#514,#515);
#517=PLANE('',#516);
#518=ORIENTED_EDGE('',*,*,#470,.T.);
#519=ORIENTED_EDGE('',*,*,#497,.T.);
#520=EDGE_LOOP('',(#518,#519));
#521=FACE_OUTER_BOUND('',#520,.F.);
#523=CLOSED_SHELL('',(#268,#293,#320,#334,#346,#360,#372,#386,#409,#422,#434,
#446,#461,#476,#489,#502,#512,#522));
#524=MANIFOLD_SOLID_BREP('',#523);
#526=DIMENSIONAL_EXPONENTS(0.E0,0.E0,0.E0,0.E0,0.E0,0.E0,0.E0);
#528=PLANE_ANGLE_MEASURE_WITH_UNIT(PLANE_ANGLE_MEASURE(1.745329251994E-2),#527);
#529=(CONVERSION_BASED_UNIT('DEGREE',#528)NAMED_UNIT(*)PLANE_ANGLE_UNIT());
#531=UNCERTAINTY_MEASURE_WITH_UNIT(LENGTH_MEASURE(3.819362622765E-3),#525,
'closure',
'Maximum model space distance between geometric entities at asserted connectivities');
#534=APPLICATION_CONTEXT(
'CONFIGURATION CONTROLLED 3D DESIGNS OF MECHANICAL PARTS AND ASSEMBLIES');
#535=APPLICATION_PROTOCOL_DEFINITION('international standard',
'config_control_design',1994,#534);
#536=DESIGN_CONTEXT('',#534,'design');
#537=MECHANICAL_CONTEXT('',#534,'mechanical');
#538=PRODUCT('1965_SERIES','1965_SERIES','NOT SPECIFIED',(#537));
#539=PRODUCT_DEFINITION_FORMATION_WITH_SPECIFIED_SOURCE('2','LAST_VERSION',#538,
.MADE.);
#543=PRODUCT_CATEGORY('part','');
#544=PRODUCT_RELATED_PRODUCT_CATEGORY('detail','',(#538));
#545=PRODUCT_CATEGORY_RELATIONSHIP('','',#543,#544);
#546=SECURITY_CLASSIFICATION_LEVEL('unclassified');
#547=SECURITY_CLASSIFICATION('','',#546);
#548=CC_DESIGN_SECURITY_CLASSIFICATION(#547,(#539));
#549=APPROVAL_STATUS('approved');
#550=APPROVAL(#549,'');
#551=CC_DESIGN_APPROVAL(#550,(#547,#539,#540));
#552=CALENDAR_DATE(112,24,8);
#553=COORDINATED_UNIVERSAL_TIME_OFFSET(7,0,.BEHIND.);
#554=LOCAL_TIME(13,52,5.2E1,#553);
#555=DATE_AND_TIME(#552,#554);
#556=APPROVAL_DATE_TIME(#555,#550);
#557=DATE_TIME_ROLE('creation_date');
#558=CC_DESIGN_DATE_AND_TIME_ASSIGNMENT(#555,#557,(#540));
#559=DATE_TIME_ROLE('classification_date');
#560=CC_DESIGN_DATE_AND_TIME_ASSIGNMENT(#555,#559,(#547));
#561=PERSON('UNSPECIFIED','UNSPECIFIED',$,$,$,$);
#562=ORGANIZATION('UNSPECIFIED','UNSPECIFIED','UNSPECIFIED');
#563=PERSON_AND_ORGANIZATION(#561,#562);
#564=APPROVAL_ROLE('approver');
#565=APPROVAL_PERSON_ORGANIZATION(#563,#550,#564);
#566=PERSON_AND_ORGANIZATION_ROLE('creator');
#567=CC_DESIGN_PERSON_AND_ORGANIZATION_ASSIGNMENT(#563,#566,(#539,#540));
#568=PERSON_AND_ORGANIZATION_ROLE('design_supplier');
#569=CC_DESIGN_PERSON_AND_ORGANIZATION_ASSIGNMENT(#563,#568,(#539));
#570=PERSON_AND_ORGANIZATION_ROLE('classification_officer');
#571=CC_DESIGN_PERSON_AND_ORGANIZATION_ASSIGNMENT(#563,#570,(#547));
#572=PERSON_AND_ORGANIZATION_ROLE('design_owner');
#573=CC_DESIGN_PERSON_AND_ORGANIZATION_ASSIGNMENT(#563,#572,(#538));
#21=CIRCLE('',#20,2.25E0);
#26=CIRCLE('',#25,2.25E0);
#31=CIRCLE('',#30,2.25E0);
#36=CIRCLE('',#35,2.25E0);
#49=CIRCLE('',#48,6.347018502430E0);
#54=CIRCLE('',#53,6.347018502430E0);
#59=CIRCLE('',#58,2.25E0);
#64=CIRCLE('',#63,2.25E0);
#69=CIRCLE('',#68,2.25E0);
#74=CIRCLE('',#73,2.25E0);
#119=CIRCLE('',#118,6.347018502430E0);
#124=CIRCLE('',#123,6.347018502430E0);
#169=CIRCLE('',#168,6.347018502430E0);
#174=CIRCLE('',#173,6.347018502430E0);
#179=CIRCLE('',#178,6.347018502430E0);
#184=CIRCLE('',#183,6.347018502430E0);
#246=EDGE_CURVE('',#187,#188,#4,.T.);
#248=EDGE_CURVE('',#188,#190,#8,.T.);
#250=EDGE_CURVE('',#190,#192,#12,.T.);
#252=EDGE_CURVE('',#192,#187,#16,.T.);
#256=EDGE_CURVE('',#199,#200,#21,.T.);
#258=EDGE_CURVE('',#200,#199,#26,.T.);
#262=EDGE_CURVE('',#203,#204,#31,.T.);
#264=EDGE_CURVE('',#204,#203,#36,.T.);
#268=ADVANCED_FACE('',(#255,#261,#267),#245,.F.);
#274=EDGE_CURVE('',#196,#223,#82,.T.);
#276=EDGE_CURVE('',#223,#215,#40,.T.);
#278=EDGE_CURVE('',#215,#216,#132,.T.);
#280=EDGE_CURVE('',#188,#216,#128,.T.);
#283=EDGE_CURVE('',#187,#196,#44,.T.);
#287=EDGE_CURVE('',#235,#236,#49,.T.);
#289=EDGE_CURVE('',#236,#235,#54,.T.);
#293=ADVANCED_FACE('',(#286,#292),#273,.T.);
#299=EDGE_CURVE('',#223,#224,#78,.T.);
#302=EDGE_CURVE('',#195,#196,#86,.T.);
#304=EDGE_CURVE('',#224,#195,#90,.T.);
#308=EDGE_CURVE('',#211,#212,#69,.T.);
#310=EDGE_CURVE('',#212,#211,#74,.T.);
#314=EDGE_CURVE('',#207,#208,#59,.T.);
#316=EDGE_CURVE('',#208,#207,#64,.T.);
#320=ADVANCED_FACE('',(#307,#313,#319),#298,.T.);
#327=EDGE_CURVE('',#208,#200,#98,.T.);
#330=EDGE_CURVE('',#207,#199,#94,.T.);
#334=ADVANCED_FACE('',(#333),#325,.F.);
#346=ADVANCED_FACE('',(#345),#339,.F.);
#353=EDGE_CURVE('',#212,#204,#106,.T.);
#356=EDGE_CURVE('',#211,#203,#102,.T.);
#360=ADVANCED_FACE('',(#359),#351,.F.);
#372=ADVANCED_FACE('',(#371),#365,.F.);
#379=EDGE_CURVE('',#224,#220,#110,.T.);
#381=EDGE_CURVE('',#220,#215,#136,.T.);
#386=ADVANCED_FACE('',(#385),#377,.T.);
#392=EDGE_CURVE('',#190,#218,#114,.T.);
#394=EDGE_CURVE('',#218,#220,#140,.T.);
#398=EDGE_CURVE('',#192,#195,#148,.T.);
#403=EDGE_CURVE('',#239,#240,#119,.T.);
#405=EDGE_CURVE('',#240,#239,#124,.T.);
#409=ADVANCED_FACE('',(#402,#408),#391,.T.);
#416=EDGE_CURVE('',#216,#218,#144,.T.);
#422=ADVANCED_FACE('',(#421),#414,.T.);
#434=ADVANCED_FACE('',(#433),#427,.T.);
#446=ADVANCED_FACE('',(#445),#439,.T.);
#453=EDGE_CURVE('',#235,#231,#152,.T.);
#455=EDGE_CURVE('',#231,#232,#169,.T.);
#457=EDGE_CURVE('',#236,#232,#160,.T.);
#461=ADVANCED_FACE('',(#460),#451,.T.);
#468=EDGE_CURVE('',#228,#240,#164,.T.);
#470=EDGE_CURVE('',#227,#228,#179,.T.);
#472=EDGE_CURVE('',#227,#239,#156,.T.);
#476=ADVANCED_FACE('',(#475),#466,.T.);
#484=EDGE_CURVE('',#232,#231,#174,.T.);
#489=ADVANCED_FACE('',(#488),#481,.T.);
#497=EDGE_CURVE('',#228,#227,#184,.T.);
#502=ADVANCED_FACE('',(#501),#494,.T.);
#512=ADVANCED_FACE('',(#511),#507,.T.);
#522=ADVANCED_FACE('',(#521),#517,.F.);
#525=(LENGTH_UNIT()NAMED_UNIT(*)SI_UNIT(.MILLI.,.METRE.));
#527=(NAMED_UNIT(*)PLANE_ANGLE_UNIT()SI_UNIT($,.RADIAN.));
#530=(NAMED_UNIT(*)SI_UNIT($,.STERADIAN.)SOLID_ANGLE_UNIT());
#532=(GEOMETRIC_REPRESENTATION_CONTEXT(3)GLOBAL_UNCERTAINTY_ASSIGNED_CONTEXT((
#531))GLOBAL_UNIT_ASSIGNED_CONTEXT((#525,#529,#530))REPRESENTATION_CONTEXT
('ID1','3'));
#533=ADVANCED_BREP_SHAPE_REPRESENTATION('',(#524),#532);
#540=PRODUCT_DEFINITION('design','',#539,#536);
#541=PRODUCT_DEFINITION_SHAPE('','SHAPE FOR 1965_SERIES.',#540);
#542=SHAPE_DEFINITION_REPRESENTATION(#541,#533);
ENDSEC;
END-ISO-10303-21;
