ISO-10303-21;
HEADER;
FILE_DESCRIPTION((''),'2;1');
FILE_NAME('1800_SERIES','2012-08-24T',('ryans'),('Bourns, Inc.'),
'PRO/ENGINEER BY PARAMETRIC TECHNOLOGY CORPORATION, 2010100',
'PRO/ENGINEER BY PARAMETRIC TECHNOLOGY CORPORATION, 2010100','');
FILE_SCHEMA(('CONFIG_CONTROL_DESIGN'));
ENDSEC;
DATA;
#1=DIRECTION('',(-3.378647536068E-1,-9.411946707617E-1,0.E0));
#2=VECTOR('',#1,2.486201922612E-1);
#3=CARTESIAN_POINT('',(-1.556E0,4.565E-1,0.E0));
#4=LINE('',#3,#2);
#5=DIRECTION('',(0.E0,-1.E0,0.E0));
#6=VECTOR('',#5,6.79E-1);
#7=CARTESIAN_POINT('',(-1.64E0,2.225E-1,0.E0));
#8=LINE('',#7,#6);
#9=DIRECTION('',(1.E0,0.E0,0.E0));
#10=VECTOR('',#9,3.28E0);
#11=CARTESIAN_POINT('',(-1.64E0,-4.565E-1,0.E0));
#12=LINE('',#11,#10);
#13=DIRECTION('',(0.E0,1.E0,0.E0));
#14=VECTOR('',#13,6.79E-1);
#15=CARTESIAN_POINT('',(1.64E0,-4.565E-1,0.E0));
#16=LINE('',#15,#14);
#17=DIRECTION('',(-3.378647536068E-1,9.411946707617E-1,0.E0));
#18=VECTOR('',#17,2.486201922612E-1);
#19=CARTESIAN_POINT('',(1.64E0,2.225E-1,0.E0));
#20=LINE('',#19,#18);
#21=DIRECTION('',(-1.E0,0.E0,0.E0));
#22=VECTOR('',#21,3.112E0);
#23=CARTESIAN_POINT('',(1.556E0,4.565E-1,0.E0));
#24=LINE('',#23,#22);
#25=DIRECTION('',(0.E0,0.E0,1.E0));
#26=VECTOR('',#25,7.4E-1);
#27=CARTESIAN_POINT('',(-1.556E0,4.565E-1,0.E0));
#28=LINE('',#27,#26);
#29=DIRECTION('',(0.E0,0.E0,1.E0));
#30=VECTOR('',#29,7.4E-1);
#31=CARTESIAN_POINT('',(1.556E0,4.565E-1,0.E0));
#32=LINE('',#31,#30);
#33=CARTESIAN_POINT('',(2.7E-1,4.565E-1,3.7E-1));
#34=DIRECTION('',(0.E0,1.E0,0.E0));
#35=DIRECTION('',(1.E0,0.E0,0.E0));
#36=AXIS2_PLACEMENT_3D('',#33,#34,#35);
#38=CARTESIAN_POINT('',(2.7E-1,4.565E-1,3.7E-1));
#39=DIRECTION('',(0.E0,1.E0,0.E0));
#40=DIRECTION('',(-1.E0,0.E0,0.E0));
#41=AXIS2_PLACEMENT_3D('',#38,#39,#40);
#43=DIRECTION('',(0.E0,0.E0,1.E0));
#44=VECTOR('',#43,7.4E-1);
#45=CARTESIAN_POINT('',(1.64E0,2.225E-1,0.E0));
#46=LINE('',#45,#44);
#47=DIRECTION('',(0.E0,0.E0,1.E0));
#48=VECTOR('',#47,7.4E-1);
#49=CARTESIAN_POINT('',(1.64E0,-4.565E-1,0.E0));
#50=LINE('',#49,#48);
#51=DIRECTION('',(0.E0,0.E0,1.E0));
#52=VECTOR('',#51,7.4E-1);
#53=CARTESIAN_POINT('',(-1.64E0,-4.565E-1,0.E0));
#54=LINE('',#53,#52);
#55=CARTESIAN_POINT('',(2.7E-1,-4.565E-1,3.7E-1));
#56=DIRECTION('',(0.E0,-1.E0,0.E0));
#57=DIRECTION('',(1.E0,0.E0,0.E0));
#58=AXIS2_PLACEMENT_3D('',#55,#56,#57);
#60=CARTESIAN_POINT('',(2.7E-1,-4.565E-1,3.7E-1));
#61=DIRECTION('',(0.E0,-1.E0,0.E0));
#62=DIRECTION('',(-1.E0,0.E0,0.E0));
#63=AXIS2_PLACEMENT_3D('',#60,#61,#62);
#65=CARTESIAN_POINT('',(-1.05E-1,-4.565E-1,3.7E-1));
#66=DIRECTION('',(0.E0,-1.E0,0.E0));
#67=DIRECTION('',(1.E0,0.E0,0.E0));
#68=AXIS2_PLACEMENT_3D('',#65,#66,#67);
#70=CARTESIAN_POINT('',(-1.05E-1,-4.565E-1,3.7E-1));
#71=DIRECTION('',(0.E0,-1.E0,0.E0));
#72=DIRECTION('',(-1.E0,0.E0,0.E0));
#73=AXIS2_PLACEMENT_3D('',#70,#71,#72);
#75=DIRECTION('',(0.E0,0.E0,1.E0));
#76=VECTOR('',#75,7.4E-1);
#77=CARTESIAN_POINT('',(-1.64E0,2.225E-1,0.E0));
#78=LINE('',#77,#76);
#79=DIRECTION('',(-3.378647536068E-1,-9.411946707617E-1,0.E0));
#80=VECTOR('',#79,2.486201922612E-1);
#81=CARTESIAN_POINT('',(-1.556E0,4.565E-1,7.4E-1));
#82=LINE('',#81,#80);
#83=DIRECTION('',(-1.E0,0.E0,0.E0));
#84=VECTOR('',#83,3.112E0);
#85=CARTESIAN_POINT('',(1.556E0,4.565E-1,7.4E-1));
#86=LINE('',#85,#84);
#87=DIRECTION('',(-3.378647536068E-1,9.411946707617E-1,0.E0));
#88=VECTOR('',#87,2.486201922612E-1);
#89=CARTESIAN_POINT('',(1.64E0,2.225E-1,7.4E-1));
#90=LINE('',#89,#88);
#91=DIRECTION('',(0.E0,1.E0,0.E0));
#92=VECTOR('',#91,6.79E-1);
#93=CARTESIAN_POINT('',(1.64E0,-4.565E-1,7.4E-1));
#94=LINE('',#93,#92);
#95=DIRECTION('',(1.E0,0.E0,0.E0));
#96=VECTOR('',#95,3.28E0);
#97=CARTESIAN_POINT('',(-1.64E0,-4.565E-1,7.4E-1));
#98=LINE('',#97,#96);
#99=DIRECTION('',(0.E0,-1.E0,0.E0));
#100=VECTOR('',#99,6.79E-1);
#101=CARTESIAN_POINT('',(-1.64E0,2.225E-1,7.4E-1));
#102=LINE('',#101,#100);
#103=DIRECTION('',(0.E0,-1.E0,0.E0));
#104=VECTOR('',#103,5.E-2);
#105=CARTESIAN_POINT('',(4.7E-1,-4.565E-1,3.7E-1));
#106=LINE('',#105,#104);
#107=DIRECTION('',(0.E0,-1.E0,0.E0));
#108=VECTOR('',#107,5.E-2);
#109=CARTESIAN_POINT('',(7.E-2,-4.565E-1,3.7E-1));
#110=LINE('',#109,#108);
#111=CARTESIAN_POINT('',(2.7E-1,-5.065E-1,3.7E-1));
#112=DIRECTION('',(0.E0,-1.E0,0.E0));
#113=DIRECTION('',(1.E0,0.E0,0.E0));
#114=AXIS2_PLACEMENT_3D('',#111,#112,#113);
#116=CARTESIAN_POINT('',(2.7E-1,-5.065E-1,3.7E-1));
#117=DIRECTION('',(0.E0,-1.E0,0.E0));
#118=DIRECTION('',(-1.E0,0.E0,0.E0));
#119=AXIS2_PLACEMENT_3D('',#116,#117,#118);
#121=CARTESIAN_POINT('',(2.7E-1,-1.1365E0,3.7E-1));
#122=DIRECTION('',(0.E0,-1.E0,0.E0));
#123=DIRECTION('',(1.E0,0.E0,0.E0));
#124=AXIS2_PLACEMENT_3D('',#121,#122,#123);
#126=CARTESIAN_POINT('',(2.7E-1,-5.065E-1,3.7E-1));
#127=DIRECTION('',(0.E0,-1.E0,0.E0));
#128=DIRECTION('',(1.E0,0.E0,0.E0));
#129=AXIS2_PLACEMENT_3D('',#126,#127,#128);
#131=DIRECTION('',(-7.056084112012E-12,-1.E0,-3.924048035335E-11));
#132=VECTOR('',#131,6.300000000044E-1);
#133=CARTESIAN_POINT('',(3.451727492755E-1,-5.065E-1,3.7E-1));
#134=LINE('',#133,#132);
#135=DIRECTION('',(7.071067811866E-1,7.071067811865E-1,-1.870765164531E-11));
#136=VECTOR('',#135,2.828427124733E-2);
#137=CARTESIAN_POINT('',(3.251727492712E-1,-1.156500000004E0,
3.699999999758E-1));
#138=LINE('',#137,#136);
#139=CARTESIAN_POINT('',(2.7E-1,-1.1565E0,3.7E-1));
#140=DIRECTION('',(0.E0,-1.E0,0.E0));
#141=DIRECTION('',(-1.E0,0.E0,0.E0));
#142=AXIS2_PLACEMENT_3D('',#139,#140,#141);
#144=CARTESIAN_POINT('',(2.7E-1,-1.1565E0,3.7E-1));
#145=DIRECTION('',(0.E0,-1.E0,0.E0));
#146=DIRECTION('',(1.E0,0.E0,0.E0));
#147=AXIS2_PLACEMENT_3D('',#144,#145,#146);
#149=DIRECTION('',(-7.071067811865E-1,7.071067811865E-1,1.871157687645E-11));
#150=VECTOR('',#149,2.828427124733E-2);
#151=CARTESIAN_POINT('',(2.148272507288E-1,-1.156500000004E0,
3.700000000242E-1));
#152=LINE('',#151,#150);
#153=CARTESIAN_POINT('',(2.7E-1,-1.1365E0,3.7E-1));
#154=DIRECTION('',(0.E0,-1.E0,0.E0));
#155=DIRECTION('',(-1.E0,0.E0,0.E0));
#156=AXIS2_PLACEMENT_3D('',#153,#154,#155);
#158=CARTESIAN_POINT('',(2.7E-1,-5.065E-1,3.7E-1));
#159=DIRECTION('',(0.E0,-1.E0,0.E0));
#160=DIRECTION('',(-1.E0,0.E0,0.E0));
#161=AXIS2_PLACEMENT_3D('',#158,#159,#160);
#163=DIRECTION('',(7.056084112012E-12,-1.E0,3.924056846628E-11));
#164=VECTOR('',#163,6.300000000044E-1);
#165=CARTESIAN_POINT('',(1.948272507245E-1,-5.065E-1,3.7E-1));
#166=LINE('',#165,#164);
#167=CARTESIAN_POINT('',(-1.05E-1,-6.3E-1,3.7E-1));
#168=DIRECTION('',(0.E0,-1.E0,0.E0));
#169=DIRECTION('',(1.E0,0.E0,0.E0));
#170=AXIS2_PLACEMENT_3D('',#167,#168,#169);
#172=DIRECTION('',(0.E0,-1.E0,-4.941996219875E-11));
#173=VECTOR('',#172,1.735E-1);
#174=CARTESIAN_POINT('',(-5.85E-2,-4.565E-1,3.7E-1));
#175=LINE('',#174,#173);
#176=CARTESIAN_POINT('',(-1.05E-1,-6.3E-1,3.7E-1));
#177=DIRECTION('',(4.789039650516E-10,0.E0,1.E0));
#178=DIRECTION('',(0.E0,-1.E0,0.E0));
#179=AXIS2_PLACEMENT_3D('',#176,#177,#178);
#181=CARTESIAN_POINT('',(-1.05E-1,-6.3E-1,3.7E-1));
#182=DIRECTION('',(-4.789040934217E-10,0.E0,-1.E0));
#183=DIRECTION('',(0.E0,-1.E0,0.E0));
#184=AXIS2_PLACEMENT_3D('',#181,#182,#183);
#186=CARTESIAN_POINT('',(-1.05E-1,-6.3E-1,3.7E-1));
#187=DIRECTION('',(0.E0,-1.E0,0.E0));
#188=DIRECTION('',(-1.E0,0.E0,0.E0));
#189=AXIS2_PLACEMENT_3D('',#186,#187,#188);
#191=DIRECTION('',(0.E0,-1.E0,4.942028214775E-11));
#192=VECTOR('',#191,1.735E-1);
#193=CARTESIAN_POINT('',(-1.515E-1,-4.565E-1,3.7E-1));
#194=LINE('',#193,#192);
#195=CARTESIAN_POINT('',(2.7E-1,5.535E-1,3.7E-1));
#196=DIRECTION('',(0.E0,1.E0,0.E0));
#197=DIRECTION('',(1.E0,0.E0,0.E0));
#198=AXIS2_PLACEMENT_3D('',#195,#196,#197);
#200=DIRECTION('',(0.E0,1.E0,2.207226383339E-11));
#201=VECTOR('',#200,9.7E-2);
#202=CARTESIAN_POINT('',(3.952256078E-1,4.565E-1,3.7E-1));
#203=LINE('',#202,#201);
#204=CARTESIAN_POINT('',(3.752256078E-1,5.535E-1,3.7E-1));
#205=DIRECTION('',(0.E0,0.E0,-1.E0));
#206=DIRECTION('',(0.E0,1.E0,0.E0));
#207=AXIS2_PLACEMENT_3D('',#204,#205,#206);
#209=CARTESIAN_POINT('',(2.7E-1,5.735E-1,3.7E-1));
#210=DIRECTION('',(0.E0,1.E0,0.E0));
#211=DIRECTION('',(1.E0,0.E0,0.E0));
#212=AXIS2_PLACEMENT_3D('',#209,#210,#211);
#214=CARTESIAN_POINT('',(2.7E-1,5.735E-1,3.7E-1));
#215=DIRECTION('',(0.E0,1.E0,0.E0));
#216=DIRECTION('',(-1.E0,0.E0,0.E0));
#217=AXIS2_PLACEMENT_3D('',#214,#215,#216);
#219=CARTESIAN_POINT('',(1.647743922E-1,5.535E-1,3.7E-1));
#220=DIRECTION('',(0.E0,0.E0,1.E0));
#221=DIRECTION('',(0.E0,1.E0,0.E0));
#222=AXIS2_PLACEMENT_3D('',#219,#220,#221);
#224=CARTESIAN_POINT('',(2.7E-1,5.535E-1,3.7E-1));
#225=DIRECTION('',(0.E0,1.E0,0.E0));
#226=DIRECTION('',(-1.E0,0.E0,0.E0));
#227=AXIS2_PLACEMENT_3D('',#224,#225,#226);
#229=DIRECTION('',(0.E0,1.E0,-2.207283611329E-11));
#230=VECTOR('',#229,9.7E-2);
#231=CARTESIAN_POINT('',(1.447743922E-1,4.565E-1,3.7E-1));
#232=LINE('',#231,#230);
#233=CARTESIAN_POINT('',(-1.556E0,4.565E-1,0.E0));
#234=CARTESIAN_POINT('',(-1.64E0,2.225E-1,0.E0));
#235=VERTEX_POINT('',#233);
#236=VERTEX_POINT('',#234);
#237=CARTESIAN_POINT('',(-1.64E0,-4.565E-1,0.E0));
#238=VERTEX_POINT('',#237);
#239=CARTESIAN_POINT('',(1.64E0,-4.565E-1,0.E0));
#240=VERTEX_POINT('',#239);
#241=CARTESIAN_POINT('',(1.64E0,2.225E-1,0.E0));
#242=VERTEX_POINT('',#241);
#243=CARTESIAN_POINT('',(1.556E0,4.565E-1,0.E0));
#244=VERTEX_POINT('',#243);
#245=CARTESIAN_POINT('',(-1.556E0,4.565E-1,7.4E-1));
#246=CARTESIAN_POINT('',(-1.64E0,2.225E-1,7.4E-1));
#247=VERTEX_POINT('',#245);
#248=VERTEX_POINT('',#246);
#249=CARTESIAN_POINT('',(-1.64E0,-4.565E-1,7.4E-1));
#250=VERTEX_POINT('',#249);
#251=CARTESIAN_POINT('',(1.64E0,-4.565E-1,7.4E-1));
#252=VERTEX_POINT('',#251);
#253=CARTESIAN_POINT('',(1.64E0,2.225E-1,7.4E-1));
#254=VERTEX_POINT('',#253);
#255=CARTESIAN_POINT('',(1.556E0,4.565E-1,7.4E-1));
#256=VERTEX_POINT('',#255);
#257=CARTESIAN_POINT('',(4.7E-1,-5.065E-1,3.7E-1));
#258=CARTESIAN_POINT('',(7.E-2,-5.065E-1,3.7E-1));
#259=VERTEX_POINT('',#257);
#260=VERTEX_POINT('',#258);
#261=CARTESIAN_POINT('',(4.7E-1,-4.565E-1,3.7E-1));
#262=CARTESIAN_POINT('',(7.E-2,-4.565E-1,3.7E-1));
#263=VERTEX_POINT('',#261);
#264=VERTEX_POINT('',#262);
#265=CARTESIAN_POINT('',(3.451727492755E-1,-5.065E-1,3.7E-1));
#266=CARTESIAN_POINT('',(1.948272507245E-1,-5.065E-1,3.7E-1));
#267=VERTEX_POINT('',#265);
#268=VERTEX_POINT('',#266);
#269=CARTESIAN_POINT('',(-5.85E-2,-4.565E-1,3.7E-1));
#270=CARTESIAN_POINT('',(-1.515E-1,-4.565E-1,3.7E-1));
#271=VERTEX_POINT('',#269);
#272=VERTEX_POINT('',#270);
#273=CARTESIAN_POINT('',(-1.515E-1,-6.3E-1,3.7E-1));
#274=CARTESIAN_POINT('',(-5.85E-2,-6.3E-1,3.7E-1));
#275=VERTEX_POINT('',#273);
#276=VERTEX_POINT('',#274);
#277=CARTESIAN_POINT('',(-1.05E-1,-6.765E-1,3.7E-1));
#278=VERTEX_POINT('',#277);
#279=CARTESIAN_POINT('',(3.952256078E-1,4.565E-1,3.7E-1));
#280=CARTESIAN_POINT('',(1.447743922E-1,4.565E-1,3.7E-1));
#281=VERTEX_POINT('',#279);
#282=VERTEX_POINT('',#280);
#283=CARTESIAN_POINT('',(2.148272507245E-1,-1.1565E0,3.7E-1));
#284=CARTESIAN_POINT('',(3.251727492755E-1,-1.1565E0,3.7E-1));
#285=VERTEX_POINT('',#283);
#286=VERTEX_POINT('',#284);
#287=CARTESIAN_POINT('',(1.948272507245E-1,-1.1365E0,3.7E-1));
#288=CARTESIAN_POINT('',(3.451727492755E-1,-1.1365E0,3.7E-1));
#289=VERTEX_POINT('',#287);
#290=VERTEX_POINT('',#288);
#291=CARTESIAN_POINT('',(3.752256078E-1,5.735E-1,3.7E-1));
#292=CARTESIAN_POINT('',(1.647743922E-1,5.735E-1,3.7E-1));
#293=VERTEX_POINT('',#291);
#294=VERTEX_POINT('',#292);
#295=CARTESIAN_POINT('',(3.952256078E-1,5.535E-1,3.7E-1));
#296=CARTESIAN_POINT('',(1.447743922E-1,5.535E-1,3.7E-1));
#297=VERTEX_POINT('',#295);
#298=VERTEX_POINT('',#296);
#299=CARTESIAN_POINT('',(0.E0,0.E0,0.E0));
#300=DIRECTION('',(0.E0,0.E0,1.E0));
#301=DIRECTION('',(1.E0,0.E0,0.E0));
#302=AXIS2_PLACEMENT_3D('',#299,#300,#301);
#303=PLANE('',#302);
#305=ORIENTED_EDGE('',*,*,#304,.T.);
#307=ORIENTED_EDGE('',*,*,#306,.T.);
#309=ORIENTED_EDGE('',*,*,#308,.T.);
#311=ORIENTED_EDGE('',*,*,#310,.T.);
#313=ORIENTED_EDGE('',*,*,#312,.T.);
#315=ORIENTED_EDGE('',*,*,#314,.T.);
#316=EDGE_LOOP('',(#305,#307,#309,#311,#313,#315));
#317=FACE_OUTER_BOUND('',#316,.F.);
#319=CARTESIAN_POINT('',(-1.556E0,4.565E-1,0.E0));
#320=DIRECTION('',(-9.411946707617E-1,3.378647536068E-1,0.E0));
#321=DIRECTION('',(-3.378647536068E-1,-9.411946707617E-1,0.E0));
#322=AXIS2_PLACEMENT_3D('',#319,#320,#321);
#323=PLANE('',#322);
#324=ORIENTED_EDGE('',*,*,#304,.F.);
#326=ORIENTED_EDGE('',*,*,#325,.T.);
#328=ORIENTED_EDGE('',*,*,#327,.T.);
#330=ORIENTED_EDGE('',*,*,#329,.F.);
#331=EDGE_LOOP('',(#324,#326,#328,#330));
#332=FACE_OUTER_BOUND('',#331,.F.);
#334=CARTESIAN_POINT('',(1.556E0,4.565E-1,0.E0));
#335=DIRECTION('',(0.E0,1.E0,0.E0));
#336=DIRECTION('',(-1.E0,0.E0,0.E0));
#337=AXIS2_PLACEMENT_3D('',#334,#335,#336);
#338=PLANE('',#337);
#339=ORIENTED_EDGE('',*,*,#314,.F.);
#341=ORIENTED_EDGE('',*,*,#340,.T.);
#343=ORIENTED_EDGE('',*,*,#342,.T.);
#344=ORIENTED_EDGE('',*,*,#325,.F.);
#345=EDGE_LOOP('',(#339,#341,#343,#344));
#346=FACE_OUTER_BOUND('',#345,.F.);
#348=ORIENTED_EDGE('',*,*,#347,.T.);
#350=ORIENTED_EDGE('',*,*,#349,.T.);
#351=EDGE_LOOP('',(#348,#350));
#352=FACE_BOUND('',#351,.F.);
#354=CARTESIAN_POINT('',(1.64E0,2.225E-1,0.E0));
#355=DIRECTION('',(9.411946707617E-1,3.378647536068E-1,0.E0));
#356=DIRECTION('',(-3.378647536068E-1,9.411946707617E-1,0.E0));
#357=AXIS2_PLACEMENT_3D('',#354,#355,#356);
#358=PLANE('',#357);
#359=ORIENTED_EDGE('',*,*,#312,.F.);
#361=ORIENTED_EDGE('',*,*,#360,.T.);
#363=ORIENTED_EDGE('',*,*,#362,.T.);
#364=ORIENTED_EDGE('',*,*,#340,.F.);
#365=EDGE_LOOP('',(#359,#361,#363,#364));
#366=FACE_OUTER_BOUND('',#365,.F.);
#368=CARTESIAN_POINT('',(1.64E0,-4.565E-1,0.E0));
#369=DIRECTION('',(1.E0,0.E0,0.E0));
#370=DIRECTION('',(0.E0,1.E0,0.E0));
#371=AXIS2_PLACEMENT_3D('',#368,#369,#370);
#372=PLANE('',#371);
#373=ORIENTED_EDGE('',*,*,#310,.F.);
#375=ORIENTED_EDGE('',*,*,#374,.T.);
#377=ORIENTED_EDGE('',*,*,#376,.T.);
#378=ORIENTED_EDGE('',*,*,#360,.F.);
#379=EDGE_LOOP('',(#373,#375,#377,#378));
#380=FACE_OUTER_BOUND('',#379,.F.);
#382=CARTESIAN_POINT('',(-1.64E0,-4.565E-1,0.E0));
#383=DIRECTION('',(0.E0,-1.E0,0.E0));
#384=DIRECTION('',(1.E0,0.E0,0.E0));
#385=AXIS2_PLACEMENT_3D('',#382,#383,#384);
#386=PLANE('',#385);
#387=ORIENTED_EDGE('',*,*,#308,.F.);
#389=ORIENTED_EDGE('',*,*,#388,.T.);
#391=ORIENTED_EDGE('',*,*,#390,.T.);
#392=ORIENTED_EDGE('',*,*,#374,.F.);
#393=EDGE_LOOP('',(#387,#389,#391,#392));
#394=FACE_OUTER_BOUND('',#393,.F.);
#396=ORIENTED_EDGE('',*,*,#395,.T.);
#398=ORIENTED_EDGE('',*,*,#397,.T.);
#399=EDGE_LOOP('',(#396,#398));
#400=FACE_BOUND('',#399,.F.);
#402=ORIENTED_EDGE('',*,*,#401,.T.);
#404=ORIENTED_EDGE('',*,*,#403,.T.);
#405=EDGE_LOOP('',(#402,#404));
#406=FACE_BOUND('',#405,.F.);
#408=CARTESIAN_POINT('',(-1.64E0,2.225E-1,0.E0));
#409=DIRECTION('',(-1.E0,0.E0,0.E0));
#410=DIRECTION('',(0.E0,-1.E0,0.E0));
#411=AXIS2_PLACEMENT_3D('',#408,#409,#410);
#412=PLANE('',#411);
#413=ORIENTED_EDGE('',*,*,#306,.F.);
#414=ORIENTED_EDGE('',*,*,#329,.T.);
#416=ORIENTED_EDGE('',*,*,#415,.T.);
#417=ORIENTED_EDGE('',*,*,#388,.F.);
#418=EDGE_LOOP('',(#413,#414,#416,#417));
#419=FACE_OUTER_BOUND('',#418,.F.);
#421=CARTESIAN_POINT('',(0.E0,0.E0,7.4E-1));
#422=DIRECTION('',(0.E0,0.E0,1.E0));
#423=DIRECTION('',(1.E0,0.E0,0.E0));
#424=AXIS2_PLACEMENT_3D('',#421,#422,#423);
#425=PLANE('',#424);
#426=ORIENTED_EDGE('',*,*,#327,.F.);
#427=ORIENTED_EDGE('',*,*,#342,.F.);
#428=ORIENTED_EDGE('',*,*,#362,.F.);
#429=ORIENTED_EDGE('',*,*,#376,.F.);
#430=ORIENTED_EDGE('',*,*,#390,.F.);
#431=ORIENTED_EDGE('',*,*,#415,.F.);
#432=EDGE_LOOP('',(#426,#427,#428,#429,#430,#431));
#433=FACE_OUTER_BOUND('',#432,.F.);
#435=CARTESIAN_POINT('',(2.7E-1,-4.565E-1,3.7E-1));
#436=DIRECTION('',(0.E0,-1.E0,0.E0));
#437=DIRECTION('',(1.E0,0.E0,0.E0));
#438=AXIS2_PLACEMENT_3D('',#435,#436,#437);
#439=CYLINDRICAL_SURFACE('',#438,2.E-1);
#440=ORIENTED_EDGE('',*,*,#395,.F.);
#442=ORIENTED_EDGE('',*,*,#441,.T.);
#444=ORIENTED_EDGE('',*,*,#443,.T.);
#446=ORIENTED_EDGE('',*,*,#445,.F.);
#447=EDGE_LOOP('',(#440,#442,#444,#446));
#448=FACE_OUTER_BOUND('',#447,.F.);
#450=CARTESIAN_POINT('',(2.7E-1,-4.565E-1,3.7E-1));
#451=DIRECTION('',(0.E0,-1.E0,0.E0));
#452=DIRECTION('',(1.E0,0.E0,0.E0));
#453=AXIS2_PLACEMENT_3D('',#450,#451,#452);
#454=CYLINDRICAL_SURFACE('',#453,2.E-1);
#455=ORIENTED_EDGE('',*,*,#397,.F.);
#456=ORIENTED_EDGE('',*,*,#445,.T.);
#458=ORIENTED_EDGE('',*,*,#457,.T.);
#459=ORIENTED_EDGE('',*,*,#441,.F.);
#460=EDGE_LOOP('',(#455,#456,#458,#459));
#461=FACE_OUTER_BOUND('',#460,.F.);
#463=CARTESIAN_POINT('',(0.E0,-5.065E-1,0.E0));
#464=DIRECTION('',(0.E0,-1.E0,0.E0));
#465=DIRECTION('',(1.E0,0.E0,0.E0));
#466=AXIS2_PLACEMENT_3D('',#463,#464,#465);
#467=PLANE('',#466);
#468=ORIENTED_EDGE('',*,*,#443,.F.);
#469=ORIENTED_EDGE('',*,*,#457,.F.);
#470=EDGE_LOOP('',(#468,#469));
#471=FACE_OUTER_BOUND('',#470,.F.);
#473=ORIENTED_EDGE('',*,*,#472,.T.);
#475=ORIENTED_EDGE('',*,*,#474,.T.);
#476=EDGE_LOOP('',(#473,#475));
#477=FACE_BOUND('',#476,.F.);
#479=CARTESIAN_POINT('',(2.7E-1,-4.565E-1,3.7E-1));
#480=DIRECTION('',(0.E0,-1.E0,0.E0));
#481=DIRECTION('',(1.E0,0.E0,0.E0));
#482=AXIS2_PLACEMENT_3D('',#479,#480,#481);
#483=CYLINDRICAL_SURFACE('',#482,7.517274927555E-2);
#485=ORIENTED_EDGE('',*,*,#484,.T.);
#487=ORIENTED_EDGE('',*,*,#486,.F.);
#488=ORIENTED_EDGE('',*,*,#472,.F.);
#490=ORIENTED_EDGE('',*,*,#489,.T.);
#491=EDGE_LOOP('',(#485,#487,#488,#490));
#492=FACE_OUTER_BOUND('',#491,.F.);
#494=CARTESIAN_POINT('',(2.7E-1,-1.146500000004E0,3.7E-1));
#495=DIRECTION('',(0.E0,1.E0,0.E0));
#496=DIRECTION('',(0.E0,0.E0,-1.E0));
#497=AXIS2_PLACEMENT_3D('',#494,#495,#496);
#498=CONICAL_SURFACE('',#497,6.517274927172E-2,4.5E1);
#500=ORIENTED_EDGE('',*,*,#499,.T.);
#502=ORIENTED_EDGE('',*,*,#501,.T.);
#503=ORIENTED_EDGE('',*,*,#484,.F.);
#505=ORIENTED_EDGE('',*,*,#504,.F.);
#506=EDGE_LOOP('',(#500,#502,#503,#505));
#507=FACE_OUTER_BOUND('',#506,.F.);
#509=CARTESIAN_POINT('',(0.E0,-1.1565E0,0.E0));
#510=DIRECTION('',(0.E0,-1.E0,0.E0));
#511=DIRECTION('',(1.E0,0.E0,0.E0));
#512=AXIS2_PLACEMENT_3D('',#509,#510,#511);
#513=PLANE('',#512);
#515=ORIENTED_EDGE('',*,*,#514,.F.);
#516=ORIENTED_EDGE('',*,*,#499,.F.);
#517=EDGE_LOOP('',(#515,#516));
#518=FACE_OUTER_BOUND('',#517,.F.);
#520=CARTESIAN_POINT('',(2.7E-1,-1.146500000004E0,3.7E-1));
#521=DIRECTION('',(0.E0,1.E0,0.E0));
#522=DIRECTION('',(0.E0,0.E0,-1.E0));
#523=AXIS2_PLACEMENT_3D('',#520,#521,#522);
#524=CONICAL_SURFACE('',#523,6.517274927172E-2,4.5E1);
#525=ORIENTED_EDGE('',*,*,#514,.T.);
#526=ORIENTED_EDGE('',*,*,#504,.T.);
#528=ORIENTED_EDGE('',*,*,#527,.F.);
#529=ORIENTED_EDGE('',*,*,#501,.F.);
#530=EDGE_LOOP('',(#525,#526,#528,#529));
#531=FACE_OUTER_BOUND('',#530,.F.);
#533=CARTESIAN_POINT('',(2.7E-1,-4.565E-1,3.7E-1));
#534=DIRECTION('',(0.E0,-1.E0,0.E0));
#535=DIRECTION('',(1.E0,0.E0,0.E0));
#536=AXIS2_PLACEMENT_3D('',#533,#534,#535);
#537=CYLINDRICAL_SURFACE('',#536,7.517274927555E-2);
#538=ORIENTED_EDGE('',*,*,#527,.T.);
#539=ORIENTED_EDGE('',*,*,#489,.F.);
#540=ORIENTED_EDGE('',*,*,#474,.F.);
#541=ORIENTED_EDGE('',*,*,#486,.T.);
#542=EDGE_LOOP('',(#538,#539,#540,#541));
#543=FACE_OUTER_BOUND('',#542,.F.);
#545=CARTESIAN_POINT('',(-1.05E-1,-4.565E-1,3.7E-1));
#546=DIRECTION('',(0.E0,-1.E0,0.E0));
#547=DIRECTION('',(1.E0,0.E0,0.E0));
#548=AXIS2_PLACEMENT_3D('',#545,#546,#547);
#549=CYLINDRICAL_SURFACE('',#548,4.65E-2);
#551=ORIENTED_EDGE('',*,*,#550,.T.);
#553=ORIENTED_EDGE('',*,*,#552,.F.);
#554=ORIENTED_EDGE('',*,*,#401,.F.);
#556=ORIENTED_EDGE('',*,*,#555,.T.);
#557=EDGE_LOOP('',(#551,#553,#554,#556));
#558=FACE_OUTER_BOUND('',#557,.F.);
#560=CARTESIAN_POINT('',(-1.05E-1,-6.3E-1,3.7E-1));
#561=DIRECTION('',(0.E0,-1.E0,0.E0));
#562=DIRECTION('',(1.E0,0.E0,-4.789039650516E-10));
#563=AXIS2_PLACEMENT_3D('',#560,#561,#562);
#564=SPHERICAL_SURFACE('',#563,4.65E-2);
#565=ORIENTED_EDGE('',*,*,#550,.F.);
#567=ORIENTED_EDGE('',*,*,#566,.F.);
#569=ORIENTED_EDGE('',*,*,#568,.T.);
#570=EDGE_LOOP('',(#565,#567,#569));
#571=FACE_OUTER_BOUND('',#570,.F.);
#573=CARTESIAN_POINT('',(-1.05E-1,-6.3E-1,3.7E-1));
#574=DIRECTION('',(0.E0,-1.E0,0.E0));
#575=DIRECTION('',(-1.E0,0.E0,4.789040934217E-10));
#576=AXIS2_PLACEMENT_3D('',#573,#574,#575);
#577=SPHERICAL_SURFACE('',#576,4.65E-2);
#579=ORIENTED_EDGE('',*,*,#578,.F.);
#580=ORIENTED_EDGE('',*,*,#568,.F.);
#581=ORIENTED_EDGE('',*,*,#566,.T.);
#582=EDGE_LOOP('',(#579,#580,#581));
#583=FACE_OUTER_BOUND('',#582,.F.);
#585=CARTESIAN_POINT('',(-1.05E-1,-4.565E-1,3.7E-1));
#586=DIRECTION('',(0.E0,-1.E0,0.E0));
#587=DIRECTION('',(1.E0,0.E0,0.E0));
#588=AXIS2_PLACEMENT_3D('',#585,#586,#587);
#589=CYLINDRICAL_SURFACE('',#588,4.65E-2);
#590=ORIENTED_EDGE('',*,*,#578,.T.);
#591=ORIENTED_EDGE('',*,*,#555,.F.);
#592=ORIENTED_EDGE('',*,*,#403,.F.);
#593=ORIENTED_EDGE('',*,*,#552,.T.);
#594=EDGE_LOOP('',(#590,#591,#592,#593));
#595=FACE_OUTER_BOUND('',#594,.F.);
#597=CARTESIAN_POINT('',(2.7E-1,4.565E-1,3.7E-1));
#598=DIRECTION('',(0.E0,1.E0,0.E0));
#599=DIRECTION('',(1.E0,0.E0,0.E0));
#600=AXIS2_PLACEMENT_3D('',#597,#598,#599);
#601=CYLINDRICAL_SURFACE('',#600,1.252256078E-1);
#603=ORIENTED_EDGE('',*,*,#602,.T.);
#605=ORIENTED_EDGE('',*,*,#604,.F.);
#606=ORIENTED_EDGE('',*,*,#347,.F.);
#608=ORIENTED_EDGE('',*,*,#607,.T.);
#609=EDGE_LOOP('',(#603,#605,#606,#608));
#610=FACE_OUTER_BOUND('',#609,.F.);
#612=CARTESIAN_POINT('',(2.7E-1,5.535E-1,3.7E-1));
#613=DIRECTION('',(0.E0,1.E0,0.E0));
#614=DIRECTION('',(9.998128682431E-1,0.E0,1.934498631220E-2));
#615=AXIS2_PLACEMENT_3D('',#612,#613,#614);
#616=TOROIDAL_SURFACE('',#615,1.052256078E-1,2.E-2);
#618=ORIENTED_EDGE('',*,*,#617,.T.);
#620=ORIENTED_EDGE('',*,*,#619,.T.);
#621=ORIENTED_EDGE('',*,*,#602,.F.);
#623=ORIENTED_EDGE('',*,*,#622,.F.);
#624=EDGE_LOOP('',(#618,#620,#621,#623));
#625=FACE_OUTER_BOUND('',#624,.F.);
#627=CARTESIAN_POINT('',(0.E0,5.735E-1,0.E0));
#628=DIRECTION('',(0.E0,1.E0,0.E0));
#629=DIRECTION('',(1.E0,0.E0,0.E0));
#630=AXIS2_PLACEMENT_3D('',#627,#628,#629);
#631=PLANE('',#630);
#632=ORIENTED_EDGE('',*,*,#617,.F.);
#634=ORIENTED_EDGE('',*,*,#633,.F.);
#635=EDGE_LOOP('',(#632,#634));
#636=FACE_OUTER_BOUND('',#635,.F.);
#638=CARTESIAN_POINT('',(2.7E-1,5.535E-1,3.7E-1));
#639=DIRECTION('',(0.E0,1.E0,0.E0));
#640=DIRECTION('',(-9.998128682431E-1,0.E0,-1.934498631220E-2));
#641=AXIS2_PLACEMENT_3D('',#638,#639,#640);
#642=TOROIDAL_SURFACE('',#641,1.052256078E-1,2.E-2);
#643=ORIENTED_EDGE('',*,*,#633,.T.);
#644=ORIENTED_EDGE('',*,*,#622,.T.);
#646=ORIENTED_EDGE('',*,*,#645,.F.);
#647=ORIENTED_EDGE('',*,*,#619,.F.);
#648=EDGE_LOOP('',(#643,#644,#646,#647));
#649=FACE_OUTER_BOUND('',#648,.F.);
#651=CARTESIAN_POINT('',(2.7E-1,4.565E-1,3.7E-1));
#652=DIRECTION('',(0.E0,1.E0,0.E0));
#653=DIRECTION('',(1.E0,0.E0,0.E0));
#654=AXIS2_PLACEMENT_3D('',#651,#652,#653);
#655=CYLINDRICAL_SURFACE('',#654,1.252256078E-1);
#656=ORIENTED_EDGE('',*,*,#645,.T.);
#657=ORIENTED_EDGE('',*,*,#607,.F.);
#658=ORIENTED_EDGE('',*,*,#349,.F.);
#659=ORIENTED_EDGE('',*,*,#604,.T.);
#660=EDGE_LOOP('',(#656,#657,#658,#659));
#661=FACE_OUTER_BOUND('',#660,.F.);
#663=CLOSED_SHELL('',(#318,#333,#353,#367,#381,#407,#420,#434,#449,#462,#478,
#493,#508,#519,#532,#544,#559,#572,#584,#596,#611,#626,#637,#650,#662));
#664=MANIFOLD_SOLID_BREP('',#663);
#666=DIMENSIONAL_EXPONENTS(0.E0,0.E0,0.E0,0.E0,0.E0,0.E0,0.E0);
#668=PLANE_ANGLE_MEASURE_WITH_UNIT(PLANE_ANGLE_MEASURE(1.745329251994E-2),#667);
#669=(CONVERSION_BASED_UNIT('DEGREE',#668)NAMED_UNIT(*)PLANE_ANGLE_UNIT());
#671=UNCERTAINTY_MEASURE_WITH_UNIT(LENGTH_MEASURE(1.575515574283E-4),#665,
'closure',
'Maximum model space distance between geometric entities at asserted connectivities');
#674=APPLICATION_CONTEXT(
'CONFIGURATION CONTROLLED 3D DESIGNS OF MECHANICAL PARTS AND ASSEMBLIES');
#675=APPLICATION_PROTOCOL_DEFINITION('international standard',
'config_control_design',1994,#674);
#676=DESIGN_CONTEXT('',#674,'design');
#677=MECHANICAL_CONTEXT('',#674,'mechanical');
#678=PRODUCT('1800_SERIES','1800_SERIES','NOT SPECIFIED',(#677));
#679=PRODUCT_DEFINITION_FORMATION_WITH_SPECIFIED_SOURCE('1','LAST_VERSION',#678,
.MADE.);
#683=PRODUCT_CATEGORY('part','');
#684=PRODUCT_RELATED_PRODUCT_CATEGORY('detail','',(#678));
#685=PRODUCT_CATEGORY_RELATIONSHIP('','',#683,#684);
#686=SECURITY_CLASSIFICATION_LEVEL('unclassified');
#687=SECURITY_CLASSIFICATION('','',#686);
#688=CC_DESIGN_SECURITY_CLASSIFICATION(#687,(#679));
#689=APPROVAL_STATUS('approved');
#690=APPROVAL(#689,'');
#691=CC_DESIGN_APPROVAL(#690,(#687,#679,#680));
#692=CALENDAR_DATE(112,24,8);
#693=COORDINATED_UNIVERSAL_TIME_OFFSET(7,0,.BEHIND.);
#694=LOCAL_TIME(12,57,2.E0,#693);
#695=DATE_AND_TIME(#692,#694);
#696=APPROVAL_DATE_TIME(#695,#690);
#697=DATE_TIME_ROLE('creation_date');
#698=CC_DESIGN_DATE_AND_TIME_ASSIGNMENT(#695,#697,(#680));
#699=DATE_TIME_ROLE('classification_date');
#700=CC_DESIGN_DATE_AND_TIME_ASSIGNMENT(#695,#699,(#687));
#701=PERSON('UNSPECIFIED','UNSPECIFIED',$,$,$,$);
#702=ORGANIZATION('UNSPECIFIED','UNSPECIFIED','UNSPECIFIED');
#703=PERSON_AND_ORGANIZATION(#701,#702);
#704=APPROVAL_ROLE('approver');
#705=APPROVAL_PERSON_ORGANIZATION(#703,#690,#704);
#706=PERSON_AND_ORGANIZATION_ROLE('creator');
#707=CC_DESIGN_PERSON_AND_ORGANIZATION_ASSIGNMENT(#703,#706,(#679,#680));
#708=PERSON_AND_ORGANIZATION_ROLE('design_supplier');
#709=CC_DESIGN_PERSON_AND_ORGANIZATION_ASSIGNMENT(#703,#708,(#679));
#710=PERSON_AND_ORGANIZATION_ROLE('classification_officer');
#711=CC_DESIGN_PERSON_AND_ORGANIZATION_ASSIGNMENT(#703,#710,(#687));
#712=PERSON_AND_ORGANIZATION_ROLE('design_owner');
#713=CC_DESIGN_PERSON_AND_ORGANIZATION_ASSIGNMENT(#703,#712,(#678));
#37=CIRCLE('',#36,1.252256078E-1);
#42=CIRCLE('',#41,1.252256078E-1);
#59=CIRCLE('',#58,2.E-1);
#64=CIRCLE('',#63,2.E-1);
#69=CIRCLE('',#68,4.65E-2);
#74=CIRCLE('',#73,4.65E-2);
#115=CIRCLE('',#114,2.E-1);
#120=CIRCLE('',#119,2.E-1);
#125=CIRCLE('',#124,7.517274927555E-2);
#130=CIRCLE('',#129,7.517274927555E-2);
#143=CIRCLE('',#142,5.517274927555E-2);
#148=CIRCLE('',#147,5.517274927555E-2);
#157=CIRCLE('',#156,7.517274927555E-2);
#162=CIRCLE('',#161,7.517274927555E-2);
#171=CIRCLE('',#170,4.65E-2);
#180=CIRCLE('',#179,4.65E-2);
#185=CIRCLE('',#184,4.65E-2);
#190=CIRCLE('',#189,4.65E-2);
#199=CIRCLE('',#198,1.252256078E-1);
#208=CIRCLE('',#207,2.E-2);
#213=CIRCLE('',#212,1.052256078E-1);
#218=CIRCLE('',#217,1.052256078E-1);
#223=CIRCLE('',#222,2.E-2);
#228=CIRCLE('',#227,1.252256078E-1);
#304=EDGE_CURVE('',#235,#236,#4,.T.);
#306=EDGE_CURVE('',#236,#238,#8,.T.);
#308=EDGE_CURVE('',#238,#240,#12,.T.);
#310=EDGE_CURVE('',#240,#242,#16,.T.);
#312=EDGE_CURVE('',#242,#244,#20,.T.);
#314=EDGE_CURVE('',#244,#235,#24,.T.);
#318=ADVANCED_FACE('',(#317),#303,.F.);
#325=EDGE_CURVE('',#235,#247,#28,.T.);
#327=EDGE_CURVE('',#247,#248,#82,.T.);
#329=EDGE_CURVE('',#236,#248,#78,.T.);
#333=ADVANCED_FACE('',(#332),#323,.T.);
#340=EDGE_CURVE('',#244,#256,#32,.T.);
#342=EDGE_CURVE('',#256,#247,#86,.T.);
#347=EDGE_CURVE('',#281,#282,#37,.T.);
#349=EDGE_CURVE('',#282,#281,#42,.T.);
#353=ADVANCED_FACE('',(#346,#352),#338,.T.);
#360=EDGE_CURVE('',#242,#254,#46,.T.);
#362=EDGE_CURVE('',#254,#256,#90,.T.);
#367=ADVANCED_FACE('',(#366),#358,.T.);
#374=EDGE_CURVE('',#240,#252,#50,.T.);
#376=EDGE_CURVE('',#252,#254,#94,.T.);
#381=ADVANCED_FACE('',(#380),#372,.T.);
#388=EDGE_CURVE('',#238,#250,#54,.T.);
#390=EDGE_CURVE('',#250,#252,#98,.T.);
#395=EDGE_CURVE('',#263,#264,#59,.T.);
#397=EDGE_CURVE('',#264,#263,#64,.T.);
#401=EDGE_CURVE('',#271,#272,#69,.T.);
#403=EDGE_CURVE('',#272,#271,#74,.T.);
#407=ADVANCED_FACE('',(#394,#400,#406),#386,.T.);
#415=EDGE_CURVE('',#248,#250,#102,.T.);
#420=ADVANCED_FACE('',(#419),#412,.T.);
#434=ADVANCED_FACE('',(#433),#425,.T.);
#441=EDGE_CURVE('',#263,#259,#106,.T.);
#443=EDGE_CURVE('',#259,#260,#115,.T.);
#445=EDGE_CURVE('',#264,#260,#110,.T.);
#449=ADVANCED_FACE('',(#448),#439,.T.);
#457=EDGE_CURVE('',#260,#259,#120,.T.);
#462=ADVANCED_FACE('',(#461),#454,.T.);
#472=EDGE_CURVE('',#267,#268,#130,.T.);
#474=EDGE_CURVE('',#268,#267,#162,.T.);
#478=ADVANCED_FACE('',(#471,#477),#467,.T.);
#484=EDGE_CURVE('',#290,#289,#125,.T.);
#486=EDGE_CURVE('',#268,#289,#166,.T.);
#489=EDGE_CURVE('',#267,#290,#134,.T.);
#493=ADVANCED_FACE('',(#492),#483,.T.);
#499=EDGE_CURVE('',#286,#285,#148,.T.);
#501=EDGE_CURVE('',#285,#289,#152,.T.);
#504=EDGE_CURVE('',#286,#290,#138,.T.);
#508=ADVANCED_FACE('',(#507),#498,.T.);
#514=EDGE_CURVE('',#285,#286,#143,.T.);
#519=ADVANCED_FACE('',(#518),#513,.T.);
#527=EDGE_CURVE('',#289,#290,#157,.T.);
#532=ADVANCED_FACE('',(#531),#524,.T.);
#544=ADVANCED_FACE('',(#543),#537,.T.);
#550=EDGE_CURVE('',#276,#275,#171,.T.);
#552=EDGE_CURVE('',#272,#275,#194,.T.);
#555=EDGE_CURVE('',#271,#276,#175,.T.);
#559=ADVANCED_FACE('',(#558),#549,.T.);
#566=EDGE_CURVE('',#278,#276,#180,.T.);
#568=EDGE_CURVE('',#278,#275,#185,.T.);
#572=ADVANCED_FACE('',(#571),#564,.T.);
#578=EDGE_CURVE('',#275,#276,#190,.T.);
#584=ADVANCED_FACE('',(#583),#577,.T.);
#596=ADVANCED_FACE('',(#595),#589,.T.);
#602=EDGE_CURVE('',#297,#298,#199,.T.);
#604=EDGE_CURVE('',#282,#298,#232,.T.);
#607=EDGE_CURVE('',#281,#297,#203,.T.);
#611=ADVANCED_FACE('',(#610),#601,.T.);
#617=EDGE_CURVE('',#293,#294,#213,.T.);
#619=EDGE_CURVE('',#294,#298,#223,.T.);
#622=EDGE_CURVE('',#293,#297,#208,.T.);
#626=ADVANCED_FACE('',(#625),#616,.T.);
#633=EDGE_CURVE('',#294,#293,#218,.T.);
#637=ADVANCED_FACE('',(#636),#631,.T.);
#645=EDGE_CURVE('',#298,#297,#228,.T.);
#650=ADVANCED_FACE('',(#649),#642,.T.);
#662=ADVANCED_FACE('',(#661),#655,.T.);
#665=(LENGTH_UNIT()NAMED_UNIT(*)SI_UNIT(.MILLI.,.METRE.));
#667=(NAMED_UNIT(*)PLANE_ANGLE_UNIT()SI_UNIT($,.RADIAN.));
#670=(NAMED_UNIT(*)SI_UNIT($,.STERADIAN.)SOLID_ANGLE_UNIT());
#672=(GEOMETRIC_REPRESENTATION_CONTEXT(3)GLOBAL_UNCERTAINTY_ASSIGNED_CONTEXT((
#671))GLOBAL_UNIT_ASSIGNED_CONTEXT((#665,#669,#670))REPRESENTATION_CONTEXT
('ID1','3'));
#673=ADVANCED_BREP_SHAPE_REPRESENTATION('',(#664),#672);
#680=PRODUCT_DEFINITION('design','',#679,#676);
#681=PRODUCT_DEFINITION_SHAPE('','SHAPE FOR 1800_SERIES.',#680);
#682=SHAPE_DEFINITION_REPRESENTATION(#681,#673);
ENDSEC;
END-ISO-10303-21;
