ISO-10303-21;
HEADER;
FILE_DESCRIPTION((''),'2;1');
FILE_NAME('1110-120K-RC','2012-08-09T',('ryans'),('Bourns, Inc.'),
'PRO/ENGINEER BY PARAMETRIC TECHNOLOGY CORPORATION, 2010100',
'PRO/ENGINEER BY PARAMETRIC TECHNOLOGY CORPORATION, 2010100','');
FILE_SCHEMA(('CONFIG_CONTROL_DESIGN'));
ENDSEC;
DATA;
#1=CARTESIAN_POINT('',(0.E0,-4.2E-1,0.E0));
#2=DIRECTION('',(0.E0,-1.E0,0.E0));
#3=DIRECTION('',(-1.E0,0.E0,0.E0));
#4=AXIS2_PLACEMENT_3D('',#1,#2,#3);
#6=CARTESIAN_POINT('',(0.E0,-4.2E-1,0.E0));
#7=DIRECTION('',(0.E0,-1.E0,0.E0));
#8=DIRECTION('',(1.E0,0.E0,0.E0));
#9=AXIS2_PLACEMENT_3D('',#6,#7,#8);
#11=CARTESIAN_POINT('',(2.35E-1,-4.2E-1,0.E0));
#12=DIRECTION('',(0.E0,-1.E0,0.E0));
#13=DIRECTION('',(1.E0,0.E0,0.E0));
#14=AXIS2_PLACEMENT_3D('',#11,#12,#13);
#16=CARTESIAN_POINT('',(2.35E-1,-4.2E-1,0.E0));
#17=DIRECTION('',(0.E0,-1.E0,0.E0));
#18=DIRECTION('',(-1.E0,0.E0,0.E0));
#19=AXIS2_PLACEMENT_3D('',#16,#17,#18);
#21=CARTESIAN_POINT('',(-2.35E-1,-4.2E-1,0.E0));
#22=DIRECTION('',(0.E0,-1.E0,0.E0));
#23=DIRECTION('',(1.E0,0.E0,0.E0));
#24=AXIS2_PLACEMENT_3D('',#21,#22,#23);
#26=CARTESIAN_POINT('',(-2.35E-1,-4.2E-1,0.E0));
#27=DIRECTION('',(0.E0,-1.E0,0.E0));
#28=DIRECTION('',(-1.E0,0.E0,0.E0));
#29=AXIS2_PLACEMENT_3D('',#26,#27,#28);
#31=CARTESIAN_POINT('',(0.E0,-4.2E-1,0.E0));
#32=DIRECTION('',(0.E0,-1.E0,0.E0));
#33=DIRECTION('',(1.E0,0.E0,0.E0));
#34=AXIS2_PLACEMENT_3D('',#31,#32,#33);
#36=CARTESIAN_POINT('',(0.E0,-4.2E-1,0.E0));
#37=DIRECTION('',(0.E0,-1.E0,0.E0));
#38=DIRECTION('',(-1.E0,0.E0,0.E0));
#39=AXIS2_PLACEMENT_3D('',#36,#37,#38);
#41=CARTESIAN_POINT('',(0.E0,-3.399999993878E-1,0.E0));
#42=DIRECTION('',(0.E0,-1.E0,0.E0));
#43=DIRECTION('',(-1.E0,0.E0,0.E0));
#44=AXIS2_PLACEMENT_3D('',#41,#42,#43);
#46=DIRECTION('',(-1.134954629854E-9,1.E0,0.E0));
#47=VECTOR('',#46,8.000000002984E-2);
#48=CARTESIAN_POINT('',(-3.3E-1,-4.2E-1,0.E0));
#49=LINE('',#48,#47);
#50=CARTESIAN_POINT('',(-9.E-1,-1.526500594359E-1,0.E0));
#51=DIRECTION('',(0.E0,0.E0,-1.E0));
#52=DIRECTION('',(1.E0,0.E0,0.E0));
#53=AXIS2_PLACEMENT_3D('',#50,#51,#52);
#55=CARTESIAN_POINT('',(0.E0,-1.526500594359E-1,0.E0));
#56=DIRECTION('',(0.E0,-1.E0,0.E0));
#57=DIRECTION('',(-1.E0,0.E0,0.E0));
#58=AXIS2_PLACEMENT_3D('',#55,#56,#57);
#60=DIRECTION('',(0.E0,1.E0,0.E0));
#61=VECTOR('',#60,3.053001194854E-1);
#62=CARTESIAN_POINT('',(3.E-1,-1.526500597427E-1,0.E0));
#63=LINE('',#62,#61);
#64=CARTESIAN_POINT('',(0.E0,1.526500594359E-1,0.E0));
#65=DIRECTION('',(0.E0,1.E0,0.E0));
#66=DIRECTION('',(1.E0,0.E0,0.E0));
#67=AXIS2_PLACEMENT_3D('',#64,#65,#66);
#69=CARTESIAN_POINT('',(0.E0,-1.526500594359E-1,0.E0));
#70=DIRECTION('',(0.E0,-1.E0,0.E0));
#71=DIRECTION('',(1.E0,0.E0,0.E0));
#72=AXIS2_PLACEMENT_3D('',#69,#70,#71);
#74=DIRECTION('',(0.E0,1.E0,0.E0));
#75=VECTOR('',#74,3.053001194854E-1);
#76=CARTESIAN_POINT('',(-3.E-1,-1.526500597427E-1,0.E0));
#77=LINE('',#76,#75);
#78=CARTESIAN_POINT('',(0.E0,1.526500594359E-1,0.E0));
#79=DIRECTION('',(0.E0,1.E0,0.E0));
#80=DIRECTION('',(-1.E0,0.E0,0.E0));
#81=AXIS2_PLACEMENT_3D('',#78,#79,#80);
#83=CARTESIAN_POINT('',(9.E-1,-1.526500594359E-1,0.E0));
#84=DIRECTION('',(0.E0,0.E0,1.E0));
#85=DIRECTION('',(-1.E0,0.E0,0.E0));
#86=AXIS2_PLACEMENT_3D('',#83,#84,#85);
#88=CARTESIAN_POINT('',(0.E0,-3.399999993878E-1,0.E0));
#89=DIRECTION('',(0.E0,-1.E0,0.E0));
#90=DIRECTION('',(1.E0,0.E0,0.E0));
#91=AXIS2_PLACEMENT_3D('',#88,#89,#90);
#93=DIRECTION('',(1.134954629854E-9,1.E0,0.E0));
#94=VECTOR('',#93,8.000000002984E-2);
#95=CARTESIAN_POINT('',(3.3E-1,-4.2E-1,0.E0));
#96=LINE('',#95,#94);
#97=CARTESIAN_POINT('',(-9.E-1,1.526500594359E-1,0.E0));
#98=DIRECTION('',(0.E0,0.E0,1.E0));
#99=DIRECTION('',(1.E0,0.E0,0.E0));
#100=AXIS2_PLACEMENT_3D('',#97,#98,#99);
#102=CARTESIAN_POINT('',(9.E-1,1.526500594359E-1,0.E0));
#103=DIRECTION('',(0.E0,0.E0,-1.E0));
#104=DIRECTION('',(-1.E0,0.E0,0.E0));
#105=AXIS2_PLACEMENT_3D('',#102,#103,#104);
#107=CARTESIAN_POINT('',(0.E0,3.399999993878E-1,0.E0));
#108=DIRECTION('',(0.E0,1.E0,0.E0));
#109=DIRECTION('',(1.E0,0.E0,0.E0));
#110=AXIS2_PLACEMENT_3D('',#107,#108,#109);
#112=DIRECTION('',(1.134953935965E-9,-1.E0,0.E0));
#113=VECTOR('',#112,8.000000002984E-2);
#114=CARTESIAN_POINT('',(3.3E-1,4.2E-1,0.E0));
#115=LINE('',#114,#113);
#116=CARTESIAN_POINT('',(0.E0,3.399999993878E-1,0.E0));
#117=DIRECTION('',(0.E0,1.E0,0.E0));
#118=DIRECTION('',(-1.E0,0.E0,0.E0));
#119=AXIS2_PLACEMENT_3D('',#116,#117,#118);
#121=DIRECTION('',(-1.134953935965E-9,-1.E0,0.E0));
#122=VECTOR('',#121,8.000000002984E-2);
#123=CARTESIAN_POINT('',(-3.3E-1,4.2E-1,0.E0));
#124=LINE('',#123,#122);
#125=CARTESIAN_POINT('',(0.E0,4.2E-1,0.E0));
#126=DIRECTION('',(0.E0,1.E0,0.E0));
#127=DIRECTION('',(1.E0,0.E0,0.E0));
#128=AXIS2_PLACEMENT_3D('',#125,#126,#127);
#130=CARTESIAN_POINT('',(0.E0,4.2E-1,0.E0));
#131=DIRECTION('',(0.E0,1.E0,0.E0));
#132=DIRECTION('',(-1.E0,0.E0,0.E0));
#133=AXIS2_PLACEMENT_3D('',#130,#131,#132);
#135=CARTESIAN_POINT('',(0.E0,4.2E-1,0.E0));
#136=DIRECTION('',(0.E0,-1.E0,0.E0));
#137=DIRECTION('',(1.E0,0.E0,0.E0));
#138=AXIS2_PLACEMENT_3D('',#135,#136,#137);
#140=CARTESIAN_POINT('',(0.E0,4.2E-1,0.E0));
#141=DIRECTION('',(0.E0,-1.E0,0.E0));
#142=DIRECTION('',(-1.E0,0.E0,0.E0));
#143=AXIS2_PLACEMENT_3D('',#140,#141,#142);
#145=DIRECTION('',(0.E0,1.E0,0.E0));
#146=VECTOR('',#145,8.4E-1);
#147=CARTESIAN_POINT('',(7.65E-2,-4.2E-1,0.E0));
#148=LINE('',#147,#146);
#149=DIRECTION('',(0.E0,1.E0,0.E0));
#150=VECTOR('',#149,8.4E-1);
#151=CARTESIAN_POINT('',(-7.65E-2,-4.2E-1,0.E0));
#152=LINE('',#151,#150);
#153=DIRECTION('',(0.E0,-1.E0,0.E0));
#154=VECTOR('',#153,5.E-1);
#155=CARTESIAN_POINT('',(2.45E-1,-4.2E-1,0.E0));
#156=LINE('',#155,#154);
#157=DIRECTION('',(0.E0,-1.E0,0.E0));
#158=VECTOR('',#157,5.E-1);
#159=CARTESIAN_POINT('',(2.25E-1,-4.2E-1,0.E0));
#160=LINE('',#159,#158);
#161=CARTESIAN_POINT('',(2.35E-1,-9.2E-1,0.E0));
#162=DIRECTION('',(0.E0,-1.E0,0.E0));
#163=DIRECTION('',(1.E0,0.E0,0.E0));
#164=AXIS2_PLACEMENT_3D('',#161,#162,#163);
#166=CARTESIAN_POINT('',(2.35E-1,-9.2E-1,0.E0));
#167=DIRECTION('',(0.E0,-1.E0,0.E0));
#168=DIRECTION('',(-1.E0,0.E0,0.E0));
#169=AXIS2_PLACEMENT_3D('',#166,#167,#168);
#171=CARTESIAN_POINT('',(-2.35E-1,-9.2E-1,0.E0));
#172=DIRECTION('',(0.E0,-1.E0,0.E0));
#173=DIRECTION('',(1.E0,0.E0,0.E0));
#174=AXIS2_PLACEMENT_3D('',#171,#172,#173);
#176=CARTESIAN_POINT('',(-2.35E-1,-9.2E-1,0.E0));
#177=DIRECTION('',(0.E0,-1.E0,0.E0));
#178=DIRECTION('',(-1.E0,0.E0,0.E0));
#179=AXIS2_PLACEMENT_3D('',#176,#177,#178);
#181=DIRECTION('',(0.E0,-1.E0,0.E0));
#182=VECTOR('',#181,5.E-1);
#183=CARTESIAN_POINT('',(-2.25E-1,-4.2E-1,0.E0));
#184=LINE('',#183,#182);
#185=DIRECTION('',(0.E0,-1.E0,0.E0));
#186=VECTOR('',#185,5.E-1);
#187=CARTESIAN_POINT('',(-2.45E-1,-4.2E-1,0.E0));
#188=LINE('',#187,#186);
#189=CARTESIAN_POINT('',(3.3E-1,4.2E-1,0.E0));
#190=CARTESIAN_POINT('',(-3.3E-1,4.2E-1,0.E0));
#191=VERTEX_POINT('',#189);
#192=VERTEX_POINT('',#190);
#193=CARTESIAN_POINT('',(-3.3E-1,-4.2E-1,0.E0));
#194=CARTESIAN_POINT('',(3.3E-1,-4.2E-1,0.E0));
#195=VERTEX_POINT('',#193);
#196=VERTEX_POINT('',#194);
#197=CARTESIAN_POINT('',(-3.E-1,-1.526500594359E-1,0.E0));
#198=CARTESIAN_POINT('',(3.E-1,-1.526500594359E-1,0.E0));
#199=VERTEX_POINT('',#197);
#200=VERTEX_POINT('',#198);
#201=CARTESIAN_POINT('',(-3.3E-1,-3.399999993878E-1,0.E0));
#202=CARTESIAN_POINT('',(3.3E-1,-3.399999993878E-1,0.E0));
#203=VERTEX_POINT('',#201);
#204=VERTEX_POINT('',#202);
#205=CARTESIAN_POINT('',(3.E-1,1.526500594359E-1,0.E0));
#206=CARTESIAN_POINT('',(-3.E-1,1.526500594359E-1,0.E0));
#207=VERTEX_POINT('',#205);
#208=VERTEX_POINT('',#206);
#209=CARTESIAN_POINT('',(3.3E-1,3.399999993878E-1,0.E0));
#210=CARTESIAN_POINT('',(-3.3E-1,3.399999993878E-1,0.E0));
#211=VERTEX_POINT('',#209);
#212=VERTEX_POINT('',#210);
#213=CARTESIAN_POINT('',(2.45E-1,-9.2E-1,0.E0));
#214=CARTESIAN_POINT('',(2.25E-1,-9.2E-1,0.E0));
#215=VERTEX_POINT('',#213);
#216=VERTEX_POINT('',#214);
#217=CARTESIAN_POINT('',(-2.25E-1,-9.2E-1,0.E0));
#218=CARTESIAN_POINT('',(-2.45E-1,-9.2E-1,0.E0));
#219=VERTEX_POINT('',#217);
#220=VERTEX_POINT('',#218);
#221=CARTESIAN_POINT('',(2.45E-1,-4.2E-1,0.E0));
#222=CARTESIAN_POINT('',(2.25E-1,-4.2E-1,0.E0));
#223=VERTEX_POINT('',#221);
#224=VERTEX_POINT('',#222);
#225=CARTESIAN_POINT('',(-2.25E-1,-4.2E-1,0.E0));
#226=CARTESIAN_POINT('',(-2.45E-1,-4.2E-1,0.E0));
#227=VERTEX_POINT('',#225);
#228=VERTEX_POINT('',#226);
#229=CARTESIAN_POINT('',(7.65E-2,-4.2E-1,0.E0));
#230=CARTESIAN_POINT('',(-7.65E-2,-4.2E-1,0.E0));
#231=VERTEX_POINT('',#229);
#232=VERTEX_POINT('',#230);
#233=CARTESIAN_POINT('',(7.65E-2,4.2E-1,0.E0));
#234=CARTESIAN_POINT('',(-7.65E-2,4.2E-1,0.E0));
#235=VERTEX_POINT('',#233);
#236=VERTEX_POINT('',#234);
#237=CARTESIAN_POINT('',(0.E0,-4.2E-1,0.E0));
#238=DIRECTION('',(0.E0,1.E0,0.E0));
#239=DIRECTION('',(1.E0,0.E0,0.E0));
#240=AXIS2_PLACEMENT_3D('',#237,#238,#239);
#241=PLANE('',#240);
#243=ORIENTED_EDGE('',*,*,#242,.F.);
#245=ORIENTED_EDGE('',*,*,#244,.F.);
#246=EDGE_LOOP('',(#243,#245));
#247=FACE_OUTER_BOUND('',#246,.F.);
#249=ORIENTED_EDGE('',*,*,#248,.T.);
#251=ORIENTED_EDGE('',*,*,#250,.T.);
#252=EDGE_LOOP('',(#249,#251));
#253=FACE_BOUND('',#252,.F.);
#255=ORIENTED_EDGE('',*,*,#254,.T.);
#257=ORIENTED_EDGE('',*,*,#256,.T.);
#258=EDGE_LOOP('',(#255,#257));
#259=FACE_BOUND('',#258,.F.);
#261=ORIENTED_EDGE('',*,*,#260,.T.);
#263=ORIENTED_EDGE('',*,*,#262,.T.);
#264=EDGE_LOOP('',(#261,#263));
#265=FACE_BOUND('',#264,.F.);
#267=CARTESIAN_POINT('',(0.E0,-4.2E-1,0.E0));
#268=DIRECTION('',(0.E0,-1.E0,0.E0));
#269=DIRECTION('',(-1.E0,0.E0,0.E0));
#270=AXIS2_PLACEMENT_3D('',#267,#268,#269);
#271=CYLINDRICAL_SURFACE('',#270,3.3E-1);
#273=ORIENTED_EDGE('',*,*,#272,.F.);
#275=ORIENTED_EDGE('',*,*,#274,.F.);
#276=ORIENTED_EDGE('',*,*,#242,.T.);
#278=ORIENTED_EDGE('',*,*,#277,.T.);
#279=EDGE_LOOP('',(#273,#275,#276,#278));
#280=FACE_OUTER_BOUND('',#279,.F.);
#282=CARTESIAN_POINT('',(0.E0,-1.526500594359E-1,0.E0));
#283=DIRECTION('',(0.E0,1.E0,0.E0));
#284=DIRECTION('',(-9.999999998705E-1,0.E0,1.609646873864E-5));
#285=AXIS2_PLACEMENT_3D('',#282,#283,#284);
#286=TOROIDAL_SURFACE('',#285,9.E-1,6.E-1);
#288=ORIENTED_EDGE('',*,*,#287,.F.);
#290=ORIENTED_EDGE('',*,*,#289,.T.);
#291=ORIENTED_EDGE('',*,*,#272,.T.);
#293=ORIENTED_EDGE('',*,*,#292,.F.);
#294=EDGE_LOOP('',(#288,#290,#291,#293));
#295=FACE_OUTER_BOUND('',#294,.F.);
#297=CARTESIAN_POINT('',(0.E0,-4.2E-1,0.E0));
#298=DIRECTION('',(0.E0,1.E0,0.E0));
#299=DIRECTION('',(1.E0,0.E0,0.E0));
#300=AXIS2_PLACEMENT_3D('',#297,#298,#299);
#301=CYLINDRICAL_SURFACE('',#300,3.E-1);
#302=ORIENTED_EDGE('',*,*,#287,.T.);
#304=ORIENTED_EDGE('',*,*,#303,.T.);
#306=ORIENTED_EDGE('',*,*,#305,.T.);
#308=ORIENTED_EDGE('',*,*,#307,.F.);
#309=EDGE_LOOP('',(#302,#304,#306,#308));
#310=FACE_OUTER_BOUND('',#309,.F.);
#312=CARTESIAN_POINT('',(0.E0,-4.2E-1,0.E0));
#313=DIRECTION('',(0.E0,1.E0,0.E0));
#314=DIRECTION('',(1.E0,0.E0,0.E0));
#315=AXIS2_PLACEMENT_3D('',#312,#313,#314);
#316=CYLINDRICAL_SURFACE('',#315,3.E-1);
#318=ORIENTED_EDGE('',*,*,#317,.T.);
#319=ORIENTED_EDGE('',*,*,#307,.T.);
#321=ORIENTED_EDGE('',*,*,#320,.T.);
#322=ORIENTED_EDGE('',*,*,#303,.F.);
#323=EDGE_LOOP('',(#318,#319,#321,#322));
#324=FACE_OUTER_BOUND('',#323,.F.);
#326=CARTESIAN_POINT('',(0.E0,-1.526500594359E-1,0.E0));
#327=DIRECTION('',(0.E0,1.E0,0.E0));
#328=DIRECTION('',(9.999999998705E-1,0.E0,-1.609646873864E-5));
#329=AXIS2_PLACEMENT_3D('',#326,#327,#328);
#330=TOROIDAL_SURFACE('',#329,9.E-1,6.E-1);
#331=ORIENTED_EDGE('',*,*,#317,.F.);
#332=ORIENTED_EDGE('',*,*,#292,.T.);
#334=ORIENTED_EDGE('',*,*,#333,.T.);
#335=ORIENTED_EDGE('',*,*,#289,.F.);
#336=EDGE_LOOP('',(#331,#332,#334,#335));
#337=FACE_OUTER_BOUND('',#336,.F.);
#339=CARTESIAN_POINT('',(0.E0,-4.2E-1,0.E0));
#340=DIRECTION('',(0.E0,-1.E0,0.E0));
#341=DIRECTION('',(-1.E0,0.E0,0.E0));
#342=AXIS2_PLACEMENT_3D('',#339,#340,#341);
#343=CYLINDRICAL_SURFACE('',#342,3.3E-1);
#344=ORIENTED_EDGE('',*,*,#333,.F.);
#345=ORIENTED_EDGE('',*,*,#277,.F.);
#346=ORIENTED_EDGE('',*,*,#244,.T.);
#347=ORIENTED_EDGE('',*,*,#274,.T.);
#348=EDGE_LOOP('',(#344,#345,#346,#347));
#349=FACE_OUTER_BOUND('',#348,.F.);
#351=CARTESIAN_POINT('',(0.E0,1.526500594359E-1,0.E0));
#352=DIRECTION('',(0.E0,1.E0,0.E0));
#353=DIRECTION('',(-9.999999998705E-1,0.E0,-1.609646873864E-5));
#354=AXIS2_PLACEMENT_3D('',#351,#352,#353);
#355=TOROIDAL_SURFACE('',#354,9.E-1,6.E-1);
#356=ORIENTED_EDGE('',*,*,#320,.F.);
#358=ORIENTED_EDGE('',*,*,#357,.T.);
#360=ORIENTED_EDGE('',*,*,#359,.T.);
#362=ORIENTED_EDGE('',*,*,#361,.F.);
#363=EDGE_LOOP('',(#356,#358,#360,#362));
#364=FACE_OUTER_BOUND('',#363,.F.);
#366=CARTESIAN_POINT('',(0.E0,1.526500594359E-1,0.E0));
#367=DIRECTION('',(0.E0,1.E0,0.E0));
#368=DIRECTION('',(9.999999998705E-1,0.E0,1.609646873864E-5));
#369=AXIS2_PLACEMENT_3D('',#366,#367,#368);
#370=TOROIDAL_SURFACE('',#369,9.E-1,6.E-1);
#371=ORIENTED_EDGE('',*,*,#305,.F.);
#372=ORIENTED_EDGE('',*,*,#361,.T.);
#374=ORIENTED_EDGE('',*,*,#373,.T.);
#375=ORIENTED_EDGE('',*,*,#357,.F.);
#376=EDGE_LOOP('',(#371,#372,#374,#375));
#377=FACE_OUTER_BOUND('',#376,.F.);
#379=CARTESIAN_POINT('',(0.E0,4.2E-1,0.E0));
#380=DIRECTION('',(0.E0,1.E0,0.E0));
#381=DIRECTION('',(1.E0,0.E0,0.E0));
#382=AXIS2_PLACEMENT_3D('',#379,#380,#381);
#383=CYLINDRICAL_SURFACE('',#382,3.3E-1);
#384=ORIENTED_EDGE('',*,*,#373,.F.);
#386=ORIENTED_EDGE('',*,*,#385,.F.);
#388=ORIENTED_EDGE('',*,*,#387,.T.);
#390=ORIENTED_EDGE('',*,*,#389,.T.);
#391=EDGE_LOOP('',(#384,#386,#388,#390));
#392=FACE_OUTER_BOUND('',#391,.F.);
#394=CARTESIAN_POINT('',(0.E0,4.2E-1,0.E0));
#395=DIRECTION('',(0.E0,1.E0,0.E0));
#396=DIRECTION('',(1.E0,0.E0,0.E0));
#397=AXIS2_PLACEMENT_3D('',#394,#395,#396);
#398=CYLINDRICAL_SURFACE('',#397,3.3E-1);
#399=ORIENTED_EDGE('',*,*,#359,.F.);
#400=ORIENTED_EDGE('',*,*,#389,.F.);
#402=ORIENTED_EDGE('',*,*,#401,.T.);
#403=ORIENTED_EDGE('',*,*,#385,.T.);
#404=EDGE_LOOP('',(#399,#400,#402,#403));
#405=FACE_OUTER_BOUND('',#404,.F.);
#407=CARTESIAN_POINT('',(0.E0,4.2E-1,0.E0));
#408=DIRECTION('',(0.E0,1.E0,0.E0));
#409=DIRECTION('',(1.E0,0.E0,0.E0));
#410=AXIS2_PLACEMENT_3D('',#407,#408,#409);
#411=PLANE('',#410);
#412=ORIENTED_EDGE('',*,*,#387,.F.);
#413=ORIENTED_EDGE('',*,*,#401,.F.);
#414=EDGE_LOOP('',(#412,#413));
#415=FACE_OUTER_BOUND('',#414,.F.);
#417=ORIENTED_EDGE('',*,*,#416,.F.);
#419=ORIENTED_EDGE('',*,*,#418,.F.);
#420=EDGE_LOOP('',(#417,#419));
#421=FACE_BOUND('',#420,.F.);
#423=CARTESIAN_POINT('',(0.E0,-4.2E-1,0.E0));
#424=DIRECTION('',(0.E0,-1.E0,0.E0));
#425=DIRECTION('',(1.E0,0.E0,0.E0));
#426=AXIS2_PLACEMENT_3D('',#423,#424,#425);
#427=CYLINDRICAL_SURFACE('',#426,7.65E-2);
#428=ORIENTED_EDGE('',*,*,#260,.F.);
#430=ORIENTED_EDGE('',*,*,#429,.T.);
#431=ORIENTED_EDGE('',*,*,#416,.T.);
#433=ORIENTED_EDGE('',*,*,#432,.F.);
#434=EDGE_LOOP('',(#428,#430,#431,#433));
#435=FACE_OUTER_BOUND('',#434,.F.);
#437=CARTESIAN_POINT('',(0.E0,-4.2E-1,0.E0));
#438=DIRECTION('',(0.E0,-1.E0,0.E0));
#439=DIRECTION('',(1.E0,0.E0,0.E0));
#440=AXIS2_PLACEMENT_3D('',#437,#438,#439);
#441=CYLINDRICAL_SURFACE('',#440,7.65E-2);
#442=ORIENTED_EDGE('',*,*,#262,.F.);
#443=ORIENTED_EDGE('',*,*,#432,.T.);
#444=ORIENTED_EDGE('',*,*,#418,.T.);
#445=ORIENTED_EDGE('',*,*,#429,.F.);
#446=EDGE_LOOP('',(#442,#443,#444,#445));
#447=FACE_OUTER_BOUND('',#446,.F.);
#449=CARTESIAN_POINT('',(2.35E-1,-4.2E-1,0.E0));
#450=DIRECTION('',(0.E0,-1.E0,0.E0));
#451=DIRECTION('',(1.E0,0.E0,0.E0));
#452=AXIS2_PLACEMENT_3D('',#449,#450,#451);
#453=CYLINDRICAL_SURFACE('',#452,1.E-2);
#454=ORIENTED_EDGE('',*,*,#248,.F.);
#456=ORIENTED_EDGE('',*,*,#455,.T.);
#458=ORIENTED_EDGE('',*,*,#457,.T.);
#460=ORIENTED_EDGE('',*,*,#459,.F.);
#461=EDGE_LOOP('',(#454,#456,#458,#460));
#462=FACE_OUTER_BOUND('',#461,.F.);
#464=CARTESIAN_POINT('',(2.35E-1,-4.2E-1,0.E0));
#465=DIRECTION('',(0.E0,-1.E0,0.E0));
#466=DIRECTION('',(1.E0,0.E0,0.E0));
#467=AXIS2_PLACEMENT_3D('',#464,#465,#466);
#468=CYLINDRICAL_SURFACE('',#467,1.E-2);
#469=ORIENTED_EDGE('',*,*,#250,.F.);
#470=ORIENTED_EDGE('',*,*,#459,.T.);
#472=ORIENTED_EDGE('',*,*,#471,.T.);
#473=ORIENTED_EDGE('',*,*,#455,.F.);
#474=EDGE_LOOP('',(#469,#470,#472,#473));
#475=FACE_OUTER_BOUND('',#474,.F.);
#477=CARTESIAN_POINT('',(0.E0,-9.2E-1,0.E0));
#478=DIRECTION('',(0.E0,-1.E0,0.E0));
#479=DIRECTION('',(1.E0,0.E0,0.E0));
#480=AXIS2_PLACEMENT_3D('',#477,#478,#479);
#481=PLANE('',#480);
#482=ORIENTED_EDGE('',*,*,#457,.F.);
#483=ORIENTED_EDGE('',*,*,#471,.F.);
#484=EDGE_LOOP('',(#482,#483));
#485=FACE_OUTER_BOUND('',#484,.F.);
#487=CARTESIAN_POINT('',(0.E0,-9.2E-1,0.E0));
#488=DIRECTION('',(0.E0,-1.E0,0.E0));
#489=DIRECTION('',(1.E0,0.E0,0.E0));
#490=AXIS2_PLACEMENT_3D('',#487,#488,#489);
#491=PLANE('',#490);
#493=ORIENTED_EDGE('',*,*,#492,.F.);
#495=ORIENTED_EDGE('',*,*,#494,.F.);
#496=EDGE_LOOP('',(#493,#495));
#497=FACE_OUTER_BOUND('',#496,.F.);
#499=CARTESIAN_POINT('',(-2.35E-1,-4.2E-1,0.E0));
#500=DIRECTION('',(0.E0,-1.E0,0.E0));
#501=DIRECTION('',(1.E0,0.E0,0.E0));
#502=AXIS2_PLACEMENT_3D('',#499,#500,#501);
#503=CYLINDRICAL_SURFACE('',#502,1.E-2);
#504=ORIENTED_EDGE('',*,*,#254,.F.);
#506=ORIENTED_EDGE('',*,*,#505,.T.);
#507=ORIENTED_EDGE('',*,*,#492,.T.);
#509=ORIENTED_EDGE('',*,*,#508,.F.);
#510=EDGE_LOOP('',(#504,#506,#507,#509));
#511=FACE_OUTER_BOUND('',#510,.F.);
#513=CARTESIAN_POINT('',(-2.35E-1,-4.2E-1,0.E0));
#514=DIRECTION('',(0.E0,-1.E0,0.E0));
#515=DIRECTION('',(1.E0,0.E0,0.E0));
#516=AXIS2_PLACEMENT_3D('',#513,#514,#515);
#517=CYLINDRICAL_SURFACE('',#516,1.E-2);
#518=ORIENTED_EDGE('',*,*,#256,.F.);
#519=ORIENTED_EDGE('',*,*,#508,.T.);
#520=ORIENTED_EDGE('',*,*,#494,.T.);
#521=ORIENTED_EDGE('',*,*,#505,.F.);
#522=EDGE_LOOP('',(#518,#519,#520,#521));
#523=FACE_OUTER_BOUND('',#522,.F.);
#525=CLOSED_SHELL('',(#266,#281,#296,#311,#325,#338,#350,#365,#378,#393,#406,
#422,#436,#448,#463,#476,#486,#498,#512,#524));
#526=MANIFOLD_SOLID_BREP('',#525);
#527=DIMENSIONAL_EXPONENTS(1.E0,0.E0,0.E0,0.E0,0.E0,0.E0,0.E0);
#529=LENGTH_MEASURE_WITH_UNIT(LENGTH_MEASURE(2.54E1),#528);
#530=(CONVERSION_BASED_UNIT('INCH',#529)LENGTH_UNIT()NAMED_UNIT(#527));
#531=DIMENSIONAL_EXPONENTS(0.E0,0.E0,0.E0,0.E0,0.E0,0.E0,0.E0);
#533=PLANE_ANGLE_MEASURE_WITH_UNIT(PLANE_ANGLE_MEASURE(1.745329251994E-2),#532);
#534=(CONVERSION_BASED_UNIT('DEGREE',#533)NAMED_UNIT(*)PLANE_ANGLE_UNIT());
#536=UNCERTAINTY_MEASURE_WITH_UNIT(LENGTH_MEASURE(6.804036104618E-5),#530,
'closure',
'Maximum model space distance between geometric entities at asserted connectivities');
#539=APPLICATION_CONTEXT(
'CONFIGURATION CONTROLLED 3D DESIGNS OF MECHANICAL PARTS AND ASSEMBLIES');
#540=APPLICATION_PROTOCOL_DEFINITION('international standard',
'config_control_design',1994,#539);
#541=DESIGN_CONTEXT('',#539,'design');
#542=MECHANICAL_CONTEXT('',#539,'mechanical');
#543=PRODUCT('1110-120K-RC','1110-120K-RC','NOT SPECIFIED',(#542));
#544=PRODUCT_DEFINITION_FORMATION_WITH_SPECIFIED_SOURCE('2','LAST_VERSION',#543,
.MADE.);
#548=PRODUCT_CATEGORY('part','');
#549=PRODUCT_RELATED_PRODUCT_CATEGORY('detail','',(#543));
#550=PRODUCT_CATEGORY_RELATIONSHIP('','',#548,#549);
#551=SECURITY_CLASSIFICATION_LEVEL('unclassified');
#552=SECURITY_CLASSIFICATION('','',#551);
#553=CC_DESIGN_SECURITY_CLASSIFICATION(#552,(#544));
#554=APPROVAL_STATUS('approved');
#555=APPROVAL(#554,'');
#556=CC_DESIGN_APPROVAL(#555,(#552,#544,#545));
#557=CALENDAR_DATE(112,9,8);
#558=COORDINATED_UNIVERSAL_TIME_OFFSET(7,0,.BEHIND.);
#559=LOCAL_TIME(13,21,3.E1,#558);
#560=DATE_AND_TIME(#557,#559);
#561=APPROVAL_DATE_TIME(#560,#555);
#562=DATE_TIME_ROLE('creation_date');
#563=CC_DESIGN_DATE_AND_TIME_ASSIGNMENT(#560,#562,(#545));
#564=DATE_TIME_ROLE('classification_date');
#565=CC_DESIGN_DATE_AND_TIME_ASSIGNMENT(#560,#564,(#552));
#566=PERSON('UNSPECIFIED','UNSPECIFIED',$,$,$,$);
#567=ORGANIZATION('UNSPECIFIED','UNSPECIFIED','UNSPECIFIED');
#568=PERSON_AND_ORGANIZATION(#566,#567);
#569=APPROVAL_ROLE('approver');
#570=APPROVAL_PERSON_ORGANIZATION(#568,#555,#569);
#571=PERSON_AND_ORGANIZATION_ROLE('creator');
#572=CC_DESIGN_PERSON_AND_ORGANIZATION_ASSIGNMENT(#568,#571,(#544,#545));
#573=PERSON_AND_ORGANIZATION_ROLE('design_supplier');
#574=CC_DESIGN_PERSON_AND_ORGANIZATION_ASSIGNMENT(#568,#573,(#544));
#575=PERSON_AND_ORGANIZATION_ROLE('classification_officer');
#576=CC_DESIGN_PERSON_AND_ORGANIZATION_ASSIGNMENT(#568,#575,(#552));
#577=PERSON_AND_ORGANIZATION_ROLE('design_owner');
#578=CC_DESIGN_PERSON_AND_ORGANIZATION_ASSIGNMENT(#568,#577,(#543));
#5=CIRCLE('',#4,3.3E-1);
#10=CIRCLE('',#9,3.3E-1);
#15=CIRCLE('',#14,1.E-2);
#20=CIRCLE('',#19,1.E-2);
#25=CIRCLE('',#24,1.E-2);
#30=CIRCLE('',#29,1.E-2);
#35=CIRCLE('',#34,7.65E-2);
#40=CIRCLE('',#39,7.65E-2);
#45=CIRCLE('',#44,3.3E-1);
#54=CIRCLE('',#53,6.E-1);
#59=CIRCLE('',#58,3.E-1);
#68=CIRCLE('',#67,3.E-1);
#73=CIRCLE('',#72,3.E-1);
#82=CIRCLE('',#81,3.E-1);
#87=CIRCLE('',#86,6.E-1);
#92=CIRCLE('',#91,3.3E-1);
#101=CIRCLE('',#100,6.E-1);
#106=CIRCLE('',#105,6.E-1);
#111=CIRCLE('',#110,3.3E-1);
#120=CIRCLE('',#119,3.3E-1);
#129=CIRCLE('',#128,3.3E-1);
#134=CIRCLE('',#133,3.3E-1);
#139=CIRCLE('',#138,7.65E-2);
#144=CIRCLE('',#143,7.65E-2);
#165=CIRCLE('',#164,1.E-2);
#170=CIRCLE('',#169,1.E-2);
#175=CIRCLE('',#174,1.E-2);
#180=CIRCLE('',#179,1.E-2);
#242=EDGE_CURVE('',#195,#196,#5,.T.);
#244=EDGE_CURVE('',#196,#195,#10,.T.);
#248=EDGE_CURVE('',#223,#224,#15,.T.);
#250=EDGE_CURVE('',#224,#223,#20,.T.);
#254=EDGE_CURVE('',#227,#228,#25,.T.);
#256=EDGE_CURVE('',#228,#227,#30,.T.);
#260=EDGE_CURVE('',#231,#232,#35,.T.);
#262=EDGE_CURVE('',#232,#231,#40,.T.);
#266=ADVANCED_FACE('',(#247,#253,#259,#265),#241,.F.);
#272=EDGE_CURVE('',#203,#204,#45,.T.);
#274=EDGE_CURVE('',#195,#203,#49,.T.);
#277=EDGE_CURVE('',#196,#204,#96,.T.);
#281=ADVANCED_FACE('',(#280),#271,.T.);
#287=EDGE_CURVE('',#199,#200,#59,.T.);
#289=EDGE_CURVE('',#199,#203,#54,.T.);
#292=EDGE_CURVE('',#200,#204,#87,.T.);
#296=ADVANCED_FACE('',(#295),#286,.F.);
#303=EDGE_CURVE('',#200,#207,#63,.T.);
#305=EDGE_CURVE('',#207,#208,#68,.T.);
#307=EDGE_CURVE('',#199,#208,#77,.T.);
#311=ADVANCED_FACE('',(#310),#301,.T.);
#317=EDGE_CURVE('',#200,#199,#73,.T.);
#320=EDGE_CURVE('',#208,#207,#82,.T.);
#325=ADVANCED_FACE('',(#324),#316,.T.);
#333=EDGE_CURVE('',#204,#203,#92,.T.);
#338=ADVANCED_FACE('',(#337),#330,.F.);
#350=ADVANCED_FACE('',(#349),#343,.T.);
#357=EDGE_CURVE('',#208,#212,#101,.T.);
#359=EDGE_CURVE('',#212,#211,#120,.T.);
#361=EDGE_CURVE('',#207,#211,#106,.T.);
#365=ADVANCED_FACE('',(#364),#355,.F.);
#373=EDGE_CURVE('',#211,#212,#111,.T.);
#378=ADVANCED_FACE('',(#377),#370,.F.);
#385=EDGE_CURVE('',#191,#211,#115,.T.);
#387=EDGE_CURVE('',#191,#192,#129,.T.);
#389=EDGE_CURVE('',#192,#212,#124,.T.);
#393=ADVANCED_FACE('',(#392),#383,.T.);
#401=EDGE_CURVE('',#192,#191,#134,.T.);
#406=ADVANCED_FACE('',(#405),#398,.T.);
#416=EDGE_CURVE('',#235,#236,#139,.T.);
#418=EDGE_CURVE('',#236,#235,#144,.T.);
#422=ADVANCED_FACE('',(#415,#421),#411,.T.);
#429=EDGE_CURVE('',#231,#235,#148,.T.);
#432=EDGE_CURVE('',#232,#236,#152,.T.);
#436=ADVANCED_FACE('',(#435),#427,.F.);
#448=ADVANCED_FACE('',(#447),#441,.F.);
#455=EDGE_CURVE('',#223,#215,#156,.T.);
#457=EDGE_CURVE('',#215,#216,#165,.T.);
#459=EDGE_CURVE('',#224,#216,#160,.T.);
#463=ADVANCED_FACE('',(#462),#453,.T.);
#471=EDGE_CURVE('',#216,#215,#170,.T.);
#476=ADVANCED_FACE('',(#475),#468,.T.);
#486=ADVANCED_FACE('',(#485),#481,.T.);
#492=EDGE_CURVE('',#219,#220,#175,.T.);
#494=EDGE_CURVE('',#220,#219,#180,.T.);
#498=ADVANCED_FACE('',(#497),#491,.T.);
#505=EDGE_CURVE('',#227,#219,#184,.T.);
#508=EDGE_CURVE('',#228,#220,#188,.T.);
#512=ADVANCED_FACE('',(#511),#503,.T.);
#524=ADVANCED_FACE('',(#523),#517,.T.);
#528=(LENGTH_UNIT()NAMED_UNIT(*)SI_UNIT(.MILLI.,.METRE.));
#532=(NAMED_UNIT(*)PLANE_ANGLE_UNIT()SI_UNIT($,.RADIAN.));
#535=(NAMED_UNIT(*)SI_UNIT($,.STERADIAN.)SOLID_ANGLE_UNIT());
#537=(GEOMETRIC_REPRESENTATION_CONTEXT(3)GLOBAL_UNCERTAINTY_ASSIGNED_CONTEXT((
#536))GLOBAL_UNIT_ASSIGNED_CONTEXT((#530,#534,#535))REPRESENTATION_CONTEXT
('ID1','3'));
#538=ADVANCED_BREP_SHAPE_REPRESENTATION('',(#526),#537);
#545=PRODUCT_DEFINITION('design','',#544,#541);
#546=PRODUCT_DEFINITION_SHAPE('','SHAPE FOR 1110-120K-RC.',#545);
#547=SHAPE_DEFINITION_REPRESENTATION(#546,#538);
ENDSEC;
END-ISO-10303-21;
