ISO-10303-21;
HEADER;
FILE_DESCRIPTION((''),'2;1');
FILE_NAME('MF-LS190RU','2012-07-26T',('ryans'),('Bourns, Inc.'),
'PRO/ENGINEER BY PARAMETRIC TECHNOLOGY CORPORATION, 2010100',
'PRO/ENGINEER BY PARAMETRIC TECHNOLOGY CORPORATION, 2010100','');
FILE_SCHEMA(('CONFIG_CONTROL_DESIGN'));
ENDSEC;
DATA;
#1=DIRECTION('',(1.E0,0.E0,0.E0));
#2=VECTOR('',#1,1.635E1);
#3=CARTESIAN_POINT('',(-1.015E1,-1.45E-1,2.5E0));
#4=LINE('',#3,#2);
#5=DIRECTION('',(0.E0,0.E0,-1.E0));
#6=VECTOR('',#5,5.E0);
#7=CARTESIAN_POINT('',(6.2E0,-1.45E-1,2.5E0));
#8=LINE('',#7,#6);
#9=DIRECTION('',(-1.E0,0.E0,0.E0));
#10=VECTOR('',#9,1.635E1);
#11=CARTESIAN_POINT('',(6.2E0,-1.45E-1,-2.5E0));
#12=LINE('',#11,#10);
#13=DIRECTION('',(0.E0,0.E0,1.E0));
#14=VECTOR('',#13,5.E0);
#15=CARTESIAN_POINT('',(-1.015E1,-1.45E-1,-2.5E0));
#16=LINE('',#15,#14);
#17=DIRECTION('',(1.E0,0.E0,0.E0));
#18=VECTOR('',#17,3.95E0);
#19=CARTESIAN_POINT('',(6.2E0,-1.45E-1,2.5E0));
#20=LINE('',#19,#18);
#21=DIRECTION('',(0.E0,1.E0,0.E0));
#22=VECTOR('',#21,2.9E-1);
#23=CARTESIAN_POINT('',(-1.015E1,-1.45E-1,2.5E0));
#24=LINE('',#23,#22);
#25=DIRECTION('',(-1.E0,0.E0,0.E0));
#26=VECTOR('',#25,3.95E0);
#27=CARTESIAN_POINT('',(-6.2E0,1.45E-1,2.5E0));
#28=LINE('',#27,#26);
#29=DIRECTION('',(0.E0,0.E0,-1.E0));
#30=VECTOR('',#29,8.8E0);
#31=CARTESIAN_POINT('',(1.015E1,-1.45E-1,1.13E1));
#32=LINE('',#31,#30);
#33=DIRECTION('',(1.E0,0.E0,0.E0));
#34=VECTOR('',#33,3.95E0);
#35=CARTESIAN_POINT('',(6.2E0,-1.45E-1,1.13E1));
#36=LINE('',#35,#34);
#37=DIRECTION('',(0.E0,0.E0,1.E0));
#38=VECTOR('',#37,8.8E0);
#39=CARTESIAN_POINT('',(6.2E0,-1.45E-1,2.5E0));
#40=LINE('',#39,#38);
#41=DIRECTION('',(0.E0,-1.E0,0.E0));
#42=VECTOR('',#41,4.35E-1);
#43=CARTESIAN_POINT('',(1.015E1,1.45E-1,-2.5E0));
#44=LINE('',#43,#42);
#45=DIRECTION('',(0.E0,-1.E0,0.E0));
#46=VECTOR('',#45,1.45E-1);
#47=CARTESIAN_POINT('',(1.015E1,-1.45E-1,1.13E1));
#48=LINE('',#47,#46);
#49=DIRECTION('',(0.E0,1.E0,0.E0));
#50=VECTOR('',#49,2.9E-1);
#51=CARTESIAN_POINT('',(1.015E1,-1.45E-1,2.5E0));
#52=LINE('',#51,#50);
#53=DIRECTION('',(0.E0,1.E0,0.E0));
#54=VECTOR('',#53,1.45E-1);
#55=CARTESIAN_POINT('',(-6.2E0,1.45E-1,-2.5E0));
#56=LINE('',#55,#54);
#57=DIRECTION('',(0.E0,-1.E0,0.E0));
#58=VECTOR('',#57,4.35E-1);
#59=CARTESIAN_POINT('',(-1.015E1,2.9E-1,-2.5E0));
#60=LINE('',#59,#58);
#61=DIRECTION('',(0.E0,-1.E0,0.E0));
#62=VECTOR('',#61,1.45E-1);
#63=CARTESIAN_POINT('',(6.2E0,-1.45E-1,-2.5E0));
#64=LINE('',#63,#62);
#65=DIRECTION('',(0.E0,-1.E0,0.E0));
#66=VECTOR('',#65,1.45E-1);
#67=CARTESIAN_POINT('',(6.2E0,-1.45E-1,1.13E1));
#68=LINE('',#67,#66);
#69=DIRECTION('',(-1.E0,0.E0,0.E0));
#70=VECTOR('',#69,3.95E0);
#71=CARTESIAN_POINT('',(1.015E1,-2.9E-1,-2.5E0));
#72=LINE('',#71,#70);
#73=DIRECTION('',(0.E0,0.E0,1.E0));
#74=VECTOR('',#73,1.38E1);
#75=CARTESIAN_POINT('',(6.2E0,-2.9E-1,-2.5E0));
#76=LINE('',#75,#74);
#77=DIRECTION('',(1.E0,0.E0,0.E0));
#78=VECTOR('',#77,3.95E0);
#79=CARTESIAN_POINT('',(6.2E0,-2.9E-1,1.13E1));
#80=LINE('',#79,#78);
#81=DIRECTION('',(0.E0,0.E0,-1.E0));
#82=VECTOR('',#81,1.38E1);
#83=CARTESIAN_POINT('',(1.015E1,-2.9E-1,1.13E1));
#84=LINE('',#83,#82);
#85=DIRECTION('',(1.E0,0.E0,0.E0));
#86=VECTOR('',#85,1.635E1);
#87=CARTESIAN_POINT('',(-6.2E0,1.45E-1,2.5E0));
#88=LINE('',#87,#86);
#89=DIRECTION('',(0.E0,0.E0,-1.E0));
#90=VECTOR('',#89,5.E0);
#91=CARTESIAN_POINT('',(-6.2E0,1.45E-1,2.5E0));
#92=LINE('',#91,#90);
#93=DIRECTION('',(-1.E0,0.E0,0.E0));
#94=VECTOR('',#93,1.635E1);
#95=CARTESIAN_POINT('',(1.015E1,1.45E-1,-2.5E0));
#96=LINE('',#95,#94);
#97=DIRECTION('',(0.E0,0.E0,-1.E0));
#98=VECTOR('',#97,5.E0);
#99=CARTESIAN_POINT('',(1.015E1,1.45E-1,2.5E0));
#100=LINE('',#99,#98);
#101=DIRECTION('',(0.E0,1.E0,0.E0));
#102=VECTOR('',#101,1.45E-1);
#103=CARTESIAN_POINT('',(-6.2E0,1.45E-1,1.13E1));
#104=LINE('',#103,#102);
#105=DIRECTION('',(0.E0,0.E0,-1.E0));
#106=VECTOR('',#105,4.E0);
#107=CARTESIAN_POINT('',(-7.925E0,1.45E-1,1.13E1));
#108=LINE('',#107,#106);
#109=DIRECTION('',(1.E0,0.E0,0.E0));
#110=VECTOR('',#109,1.725E0);
#111=CARTESIAN_POINT('',(-7.925E0,1.45E-1,1.13E1));
#112=LINE('',#111,#110);
#113=DIRECTION('',(0.E0,0.E0,-1.E0));
#114=VECTOR('',#113,8.8E0);
#115=CARTESIAN_POINT('',(-6.2E0,1.45E-1,1.13E1));
#116=LINE('',#115,#114);
#117=DIRECTION('',(0.E0,0.E0,1.E0));
#118=VECTOR('',#117,8.8E0);
#119=CARTESIAN_POINT('',(-1.015E1,1.45E-1,2.5E0));
#120=LINE('',#119,#118);
#121=DIRECTION('',(1.E0,0.E0,0.E0));
#122=VECTOR('',#121,1.725E0);
#123=CARTESIAN_POINT('',(-1.015E1,1.45E-1,1.13E1));
#124=LINE('',#123,#122);
#125=DIRECTION('',(0.E0,0.E0,-1.E0));
#126=VECTOR('',#125,4.E0);
#127=CARTESIAN_POINT('',(-8.425E0,1.45E-1,1.13E1));
#128=LINE('',#127,#126);
#129=CARTESIAN_POINT('',(-8.175E0,1.45E-1,7.3E0));
#130=DIRECTION('',(0.E0,1.E0,0.E0));
#131=DIRECTION('',(1.E0,0.E0,0.E0));
#132=AXIS2_PLACEMENT_3D('',#129,#130,#131);
#134=DIRECTION('',(0.E0,-1.E0,0.E0));
#135=VECTOR('',#134,1.45E-1);
#136=CARTESIAN_POINT('',(-7.925E0,2.9E-1,7.3E0));
#137=LINE('',#136,#135);
#138=DIRECTION('',(0.E0,-1.E0,0.E0));
#139=VECTOR('',#138,1.45E-1);
#140=CARTESIAN_POINT('',(-8.425E0,2.9E-1,7.3E0));
#141=LINE('',#140,#139);
#142=DIRECTION('',(0.E0,1.E0,0.E0));
#143=VECTOR('',#142,1.45E-1);
#144=CARTESIAN_POINT('',(-7.925E0,1.45E-1,1.13E1));
#145=LINE('',#144,#143);
#146=DIRECTION('',(0.E0,1.E0,0.E0));
#147=VECTOR('',#146,1.45E-1);
#148=CARTESIAN_POINT('',(-8.425E0,1.45E-1,1.13E1));
#149=LINE('',#148,#147);
#150=DIRECTION('',(0.E0,1.E0,0.E0));
#151=VECTOR('',#150,1.45E-1);
#152=CARTESIAN_POINT('',(-1.015E1,1.45E-1,1.13E1));
#153=LINE('',#152,#151);
#154=DIRECTION('',(0.E0,0.E0,-1.E0));
#155=VECTOR('',#154,4.E0);
#156=CARTESIAN_POINT('',(-7.925E0,2.9E-1,1.13E1));
#157=LINE('',#156,#155);
#158=CARTESIAN_POINT('',(-8.175E0,2.9E-1,7.3E0));
#159=DIRECTION('',(0.E0,1.E0,0.E0));
#160=DIRECTION('',(1.E0,0.E0,0.E0));
#161=AXIS2_PLACEMENT_3D('',#158,#159,#160);
#163=DIRECTION('',(0.E0,0.E0,-1.E0));
#164=VECTOR('',#163,4.E0);
#165=CARTESIAN_POINT('',(-8.425E0,2.9E-1,1.13E1));
#166=LINE('',#165,#164);
#167=DIRECTION('',(1.E0,0.E0,0.E0));
#168=VECTOR('',#167,1.725E0);
#169=CARTESIAN_POINT('',(-1.015E1,2.9E-1,1.13E1));
#170=LINE('',#169,#168);
#171=DIRECTION('',(0.E0,0.E0,1.E0));
#172=VECTOR('',#171,1.38E1);
#173=CARTESIAN_POINT('',(-1.015E1,2.9E-1,-2.5E0));
#174=LINE('',#173,#172);
#175=DIRECTION('',(-1.E0,0.E0,0.E0));
#176=VECTOR('',#175,3.95E0);
#177=CARTESIAN_POINT('',(-6.2E0,2.9E-1,-2.5E0));
#178=LINE('',#177,#176);
#179=DIRECTION('',(0.E0,0.E0,-1.E0));
#180=VECTOR('',#179,1.38E1);
#181=CARTESIAN_POINT('',(-6.2E0,2.9E-1,1.13E1));
#182=LINE('',#181,#180);
#183=DIRECTION('',(1.E0,0.E0,0.E0));
#184=VECTOR('',#183,1.725E0);
#185=CARTESIAN_POINT('',(-7.925E0,2.9E-1,1.13E1));
#186=LINE('',#185,#184);
#187=CARTESIAN_POINT('',(-1.015E1,-1.45E-1,-2.5E0));
#188=CARTESIAN_POINT('',(-1.015E1,-1.45E-1,2.5E0));
#189=VERTEX_POINT('',#187);
#190=VERTEX_POINT('',#188);
#191=CARTESIAN_POINT('',(1.015E1,1.45E-1,2.5E0));
#192=CARTESIAN_POINT('',(1.015E1,1.45E-1,-2.5E0));
#193=VERTEX_POINT('',#191);
#194=VERTEX_POINT('',#192);
#195=CARTESIAN_POINT('',(-1.015E1,2.9E-1,-2.5E0));
#196=CARTESIAN_POINT('',(-1.015E1,2.9E-1,1.13E1));
#197=VERTEX_POINT('',#195);
#198=VERTEX_POINT('',#196);
#199=CARTESIAN_POINT('',(-6.2E0,2.9E-1,1.13E1));
#200=CARTESIAN_POINT('',(-6.2E0,2.9E-1,-2.5E0));
#201=VERTEX_POINT('',#199);
#202=VERTEX_POINT('',#200);
#203=CARTESIAN_POINT('',(-1.015E1,1.45E-1,1.13E1));
#204=VERTEX_POINT('',#203);
#205=CARTESIAN_POINT('',(-6.2E0,1.45E-1,1.13E1));
#206=VERTEX_POINT('',#205);
#207=CARTESIAN_POINT('',(6.2E0,-1.45E-1,1.13E1));
#208=CARTESIAN_POINT('',(1.015E1,-1.45E-1,1.13E1));
#209=VERTEX_POINT('',#207);
#210=VERTEX_POINT('',#208);
#211=CARTESIAN_POINT('',(1.015E1,-2.9E-1,-2.5E0));
#212=CARTESIAN_POINT('',(6.2E0,-2.9E-1,-2.5E0));
#213=VERTEX_POINT('',#211);
#214=VERTEX_POINT('',#212);
#215=CARTESIAN_POINT('',(6.2E0,-2.9E-1,1.13E1));
#216=VERTEX_POINT('',#215);
#217=CARTESIAN_POINT('',(1.015E1,-2.9E-1,1.13E1));
#218=VERTEX_POINT('',#217);
#219=CARTESIAN_POINT('',(-6.2E0,1.45E-1,2.5E0));
#220=CARTESIAN_POINT('',(-1.015E1,1.45E-1,2.5E0));
#221=VERTEX_POINT('',#219);
#222=VERTEX_POINT('',#220);
#223=CARTESIAN_POINT('',(-6.2E0,1.45E-1,-2.5E0));
#224=VERTEX_POINT('',#223);
#225=CARTESIAN_POINT('',(6.2E0,-1.45E-1,2.5E0));
#226=CARTESIAN_POINT('',(1.015E1,-1.45E-1,2.5E0));
#227=VERTEX_POINT('',#225);
#228=VERTEX_POINT('',#226);
#229=CARTESIAN_POINT('',(6.2E0,-1.45E-1,-2.5E0));
#230=VERTEX_POINT('',#229);
#231=CARTESIAN_POINT('',(-7.925E0,1.45E-1,1.13E1));
#232=CARTESIAN_POINT('',(-7.925E0,1.45E-1,7.3E0));
#233=VERTEX_POINT('',#231);
#234=VERTEX_POINT('',#232);
#235=CARTESIAN_POINT('',(-8.425E0,1.45E-1,7.3E0));
#236=VERTEX_POINT('',#235);
#237=CARTESIAN_POINT('',(-8.425E0,1.45E-1,1.13E1));
#238=VERTEX_POINT('',#237);
#239=CARTESIAN_POINT('',(-7.925E0,2.9E-1,1.13E1));
#240=CARTESIAN_POINT('',(-7.925E0,2.9E-1,7.3E0));
#241=VERTEX_POINT('',#239);
#242=VERTEX_POINT('',#240);
#243=CARTESIAN_POINT('',(-8.425E0,2.9E-1,7.3E0));
#244=VERTEX_POINT('',#243);
#245=CARTESIAN_POINT('',(-8.425E0,2.9E-1,1.13E1));
#246=VERTEX_POINT('',#245);
#247=CARTESIAN_POINT('',(0.E0,-1.45E-1,0.E0));
#248=DIRECTION('',(0.E0,1.E0,0.E0));
#249=DIRECTION('',(1.E0,0.E0,0.E0));
#250=AXIS2_PLACEMENT_3D('',#247,#248,#249);
#251=PLANE('',#250);
#253=ORIENTED_EDGE('',*,*,#252,.T.);
#255=ORIENTED_EDGE('',*,*,#254,.T.);
#257=ORIENTED_EDGE('',*,*,#256,.T.);
#259=ORIENTED_EDGE('',*,*,#258,.T.);
#260=EDGE_LOOP('',(#253,#255,#257,#259));
#261=FACE_OUTER_BOUND('',#260,.F.);
#263=CARTESIAN_POINT('',(-1.015E1,-1.45E-1,2.5E0));
#264=DIRECTION('',(0.E0,0.E0,1.E0));
#265=DIRECTION('',(1.E0,0.E0,0.E0));
#266=AXIS2_PLACEMENT_3D('',#263,#264,#265);
#267=PLANE('',#266);
#269=ORIENTED_EDGE('',*,*,#268,.F.);
#270=ORIENTED_EDGE('',*,*,#252,.F.);
#272=ORIENTED_EDGE('',*,*,#271,.T.);
#274=ORIENTED_EDGE('',*,*,#273,.F.);
#276=ORIENTED_EDGE('',*,*,#275,.T.);
#278=ORIENTED_EDGE('',*,*,#277,.F.);
#279=EDGE_LOOP('',(#269,#270,#272,#274,#276,#278));
#280=FACE_OUTER_BOUND('',#279,.F.);
#282=CARTESIAN_POINT('',(0.E0,-1.45E-1,0.E0));
#283=DIRECTION('',(0.E0,1.E0,0.E0));
#284=DIRECTION('',(1.E0,0.E0,0.E0));
#285=AXIS2_PLACEMENT_3D('',#282,#283,#284);
#286=PLANE('',#285);
#287=ORIENTED_EDGE('',*,*,#268,.T.);
#289=ORIENTED_EDGE('',*,*,#288,.F.);
#291=ORIENTED_EDGE('',*,*,#290,.F.);
#293=ORIENTED_EDGE('',*,*,#292,.F.);
#294=EDGE_LOOP('',(#287,#289,#291,#293));
#295=FACE_OUTER_BOUND('',#294,.F.);
#297=CARTESIAN_POINT('',(1.015E1,-1.45E-1,2.5E0));
#298=DIRECTION('',(1.E0,0.E0,0.E0));
#299=DIRECTION('',(0.E0,0.E0,-1.E0));
#300=AXIS2_PLACEMENT_3D('',#297,#298,#299);
#301=PLANE('',#300);
#303=ORIENTED_EDGE('',*,*,#302,.T.);
#305=ORIENTED_EDGE('',*,*,#304,.F.);
#307=ORIENTED_EDGE('',*,*,#306,.F.);
#308=ORIENTED_EDGE('',*,*,#288,.T.);
#309=ORIENTED_EDGE('',*,*,#277,.T.);
#311=ORIENTED_EDGE('',*,*,#310,.T.);
#312=EDGE_LOOP('',(#303,#305,#307,#308,#309,#311));
#313=FACE_OUTER_BOUND('',#312,.F.);
#315=CARTESIAN_POINT('',(1.015E1,-1.45E-1,-2.5E0));
#316=DIRECTION('',(0.E0,0.E0,-1.E0));
#317=DIRECTION('',(-1.E0,0.E0,0.E0));
#318=AXIS2_PLACEMENT_3D('',#315,#316,#317);
#319=PLANE('',#318);
#320=ORIENTED_EDGE('',*,*,#256,.F.);
#322=ORIENTED_EDGE('',*,*,#321,.T.);
#324=ORIENTED_EDGE('',*,*,#323,.F.);
#325=ORIENTED_EDGE('',*,*,#302,.F.);
#327=ORIENTED_EDGE('',*,*,#326,.T.);
#329=ORIENTED_EDGE('',*,*,#328,.T.);
#331=ORIENTED_EDGE('',*,*,#330,.T.);
#333=ORIENTED_EDGE('',*,*,#332,.T.);
#334=EDGE_LOOP('',(#320,#322,#324,#325,#327,#329,#331,#333));
#335=FACE_OUTER_BOUND('',#334,.F.);
#337=CARTESIAN_POINT('',(6.2E0,-1.45E-1,-2.5E0));
#338=DIRECTION('',(-1.E0,0.E0,0.E0));
#339=DIRECTION('',(0.E0,0.E0,1.E0));
#340=AXIS2_PLACEMENT_3D('',#337,#338,#339);
#341=PLANE('',#340);
#342=ORIENTED_EDGE('',*,*,#254,.F.);
#343=ORIENTED_EDGE('',*,*,#292,.T.);
#345=ORIENTED_EDGE('',*,*,#344,.T.);
#347=ORIENTED_EDGE('',*,*,#346,.F.);
#348=ORIENTED_EDGE('',*,*,#321,.F.);
#349=EDGE_LOOP('',(#342,#343,#345,#347,#348));
#350=FACE_OUTER_BOUND('',#349,.F.);
#352=CARTESIAN_POINT('',(6.2E0,-1.45E-1,1.13E1));
#353=DIRECTION('',(0.E0,0.E0,1.E0));
#354=DIRECTION('',(1.E0,0.E0,0.E0));
#355=AXIS2_PLACEMENT_3D('',#352,#353,#354);
#356=PLANE('',#355);
#357=ORIENTED_EDGE('',*,*,#290,.T.);
#358=ORIENTED_EDGE('',*,*,#306,.T.);
#360=ORIENTED_EDGE('',*,*,#359,.F.);
#361=ORIENTED_EDGE('',*,*,#344,.F.);
#362=EDGE_LOOP('',(#357,#358,#360,#361));
#363=FACE_OUTER_BOUND('',#362,.F.);
#365=CARTESIAN_POINT('',(0.E0,-2.9E-1,0.E0));
#366=DIRECTION('',(0.E0,1.E0,0.E0));
#367=DIRECTION('',(1.E0,0.E0,0.E0));
#368=AXIS2_PLACEMENT_3D('',#365,#366,#367);
#369=PLANE('',#368);
#370=ORIENTED_EDGE('',*,*,#323,.T.);
#371=ORIENTED_EDGE('',*,*,#346,.T.);
#372=ORIENTED_EDGE('',*,*,#359,.T.);
#373=ORIENTED_EDGE('',*,*,#304,.T.);
#374=EDGE_LOOP('',(#370,#371,#372,#373));
#375=FACE_OUTER_BOUND('',#374,.F.);
#377=CARTESIAN_POINT('',(0.E0,1.45E-1,0.E0));
#378=DIRECTION('',(0.E0,1.E0,0.E0));
#379=DIRECTION('',(1.E0,0.E0,0.E0));
#380=AXIS2_PLACEMENT_3D('',#377,#378,#379);
#381=PLANE('',#380);
#382=ORIENTED_EDGE('',*,*,#275,.F.);
#384=ORIENTED_EDGE('',*,*,#383,.T.);
#385=ORIENTED_EDGE('',*,*,#326,.F.);
#386=ORIENTED_EDGE('',*,*,#310,.F.);
#387=EDGE_LOOP('',(#382,#384,#385,#386));
#388=FACE_OUTER_BOUND('',#387,.F.);
#390=CARTESIAN_POINT('',(-6.2E0,1.45E-1,1.13E1));
#391=DIRECTION('',(1.E0,0.E0,0.E0));
#392=DIRECTION('',(0.E0,0.E0,-1.E0));
#393=AXIS2_PLACEMENT_3D('',#390,#391,#392);
#394=PLANE('',#393);
#395=ORIENTED_EDGE('',*,*,#383,.F.);
#397=ORIENTED_EDGE('',*,*,#396,.F.);
#399=ORIENTED_EDGE('',*,*,#398,.T.);
#401=ORIENTED_EDGE('',*,*,#400,.T.);
#402=ORIENTED_EDGE('',*,*,#328,.F.);
#403=EDGE_LOOP('',(#395,#397,#399,#401,#402));
#404=FACE_OUTER_BOUND('',#403,.F.);
#406=CARTESIAN_POINT('',(0.E0,1.45E-1,0.E0));
#407=DIRECTION('',(0.E0,1.E0,0.E0));
#408=DIRECTION('',(1.E0,0.E0,0.E0));
#409=AXIS2_PLACEMENT_3D('',#406,#407,#408);
#410=PLANE('',#409);
#412=ORIENTED_EDGE('',*,*,#411,.F.);
#414=ORIENTED_EDGE('',*,*,#413,.T.);
#415=ORIENTED_EDGE('',*,*,#396,.T.);
#416=ORIENTED_EDGE('',*,*,#273,.T.);
#418=ORIENTED_EDGE('',*,*,#417,.T.);
#420=ORIENTED_EDGE('',*,*,#419,.T.);
#422=ORIENTED_EDGE('',*,*,#421,.T.);
#424=ORIENTED_EDGE('',*,*,#423,.F.);
#425=EDGE_LOOP('',(#412,#414,#415,#416,#418,#420,#422,#424));
#426=FACE_OUTER_BOUND('',#425,.F.);
#428=CARTESIAN_POINT('',(-7.925E0,2.9E-1,1.13E1));
#429=DIRECTION('',(1.E0,0.E0,0.E0));
#430=DIRECTION('',(0.E0,0.E0,-1.E0));
#431=AXIS2_PLACEMENT_3D('',#428,#429,#430);
#432=PLANE('',#431);
#433=ORIENTED_EDGE('',*,*,#411,.T.);
#435=ORIENTED_EDGE('',*,*,#434,.F.);
#437=ORIENTED_EDGE('',*,*,#436,.F.);
#439=ORIENTED_EDGE('',*,*,#438,.F.);
#440=EDGE_LOOP('',(#433,#435,#437,#439));
#441=FACE_OUTER_BOUND('',#440,.F.);
#443=CARTESIAN_POINT('',(-8.175E0,2.9E-1,7.3E0));
#444=DIRECTION('',(0.E0,1.E0,0.E0));
#445=DIRECTION('',(1.E0,0.E0,0.E0));
#446=AXIS2_PLACEMENT_3D('',#443,#444,#445);
#447=CYLINDRICAL_SURFACE('',#446,2.5E-1);
#448=ORIENTED_EDGE('',*,*,#423,.T.);
#450=ORIENTED_EDGE('',*,*,#449,.F.);
#452=ORIENTED_EDGE('',*,*,#451,.F.);
#453=ORIENTED_EDGE('',*,*,#434,.T.);
#454=EDGE_LOOP('',(#448,#450,#452,#453));
#455=FACE_OUTER_BOUND('',#454,.F.);
#457=CARTESIAN_POINT('',(-8.425E0,2.9E-1,7.3E0));
#458=DIRECTION('',(-1.E0,0.E0,0.E0));
#459=DIRECTION('',(0.E0,0.E0,1.E0));
#460=AXIS2_PLACEMENT_3D('',#457,#458,#459);
#461=PLANE('',#460);
#462=ORIENTED_EDGE('',*,*,#421,.F.);
#464=ORIENTED_EDGE('',*,*,#463,.T.);
#466=ORIENTED_EDGE('',*,*,#465,.T.);
#467=ORIENTED_EDGE('',*,*,#449,.T.);
#468=EDGE_LOOP('',(#462,#464,#466,#467));
#469=FACE_OUTER_BOUND('',#468,.F.);
#471=CARTESIAN_POINT('',(-1.015E1,1.45E-1,1.13E1));
#472=DIRECTION('',(0.E0,0.E0,1.E0));
#473=DIRECTION('',(1.E0,0.E0,0.E0));
#474=AXIS2_PLACEMENT_3D('',#471,#472,#473);
#475=PLANE('',#474);
#476=ORIENTED_EDGE('',*,*,#438,.T.);
#478=ORIENTED_EDGE('',*,*,#477,.T.);
#479=ORIENTED_EDGE('',*,*,#398,.F.);
#480=ORIENTED_EDGE('',*,*,#413,.F.);
#481=EDGE_LOOP('',(#476,#478,#479,#480));
#482=FACE_OUTER_BOUND('',#481,.F.);
#484=CARTESIAN_POINT('',(-1.015E1,1.45E-1,1.13E1));
#485=DIRECTION('',(0.E0,0.E0,1.E0));
#486=DIRECTION('',(1.E0,0.E0,0.E0));
#487=AXIS2_PLACEMENT_3D('',#484,#485,#486);
#488=PLANE('',#487);
#489=ORIENTED_EDGE('',*,*,#463,.F.);
#490=ORIENTED_EDGE('',*,*,#419,.F.);
#492=ORIENTED_EDGE('',*,*,#491,.T.);
#494=ORIENTED_EDGE('',*,*,#493,.T.);
#495=EDGE_LOOP('',(#489,#490,#492,#494));
#496=FACE_OUTER_BOUND('',#495,.F.);
#498=CARTESIAN_POINT('',(0.E0,2.9E-1,0.E0));
#499=DIRECTION('',(0.E0,1.E0,0.E0));
#500=DIRECTION('',(1.E0,0.E0,0.E0));
#501=AXIS2_PLACEMENT_3D('',#498,#499,#500);
#502=PLANE('',#501);
#503=ORIENTED_EDGE('',*,*,#436,.T.);
#504=ORIENTED_EDGE('',*,*,#451,.T.);
#505=ORIENTED_EDGE('',*,*,#465,.F.);
#506=ORIENTED_EDGE('',*,*,#493,.F.);
#508=ORIENTED_EDGE('',*,*,#507,.F.);
#509=ORIENTED_EDGE('',*,*,#330,.F.);
#510=ORIENTED_EDGE('',*,*,#400,.F.);
#511=ORIENTED_EDGE('',*,*,#477,.F.);
#512=EDGE_LOOP('',(#503,#504,#505,#506,#508,#509,#510,#511));
#513=FACE_OUTER_BOUND('',#512,.F.);
#515=CARTESIAN_POINT('',(-1.015E1,-1.45E-1,-2.5E0));
#516=DIRECTION('',(-1.E0,0.E0,0.E0));
#517=DIRECTION('',(0.E0,0.E0,1.E0));
#518=AXIS2_PLACEMENT_3D('',#515,#516,#517);
#519=PLANE('',#518);
#520=ORIENTED_EDGE('',*,*,#332,.F.);
#521=ORIENTED_EDGE('',*,*,#507,.T.);
#522=ORIENTED_EDGE('',*,*,#491,.F.);
#523=ORIENTED_EDGE('',*,*,#417,.F.);
#524=ORIENTED_EDGE('',*,*,#271,.F.);
#525=ORIENTED_EDGE('',*,*,#258,.F.);
#526=EDGE_LOOP('',(#520,#521,#522,#523,#524,#525));
#527=FACE_OUTER_BOUND('',#526,.F.);
#529=CLOSED_SHELL('',(#262,#281,#296,#314,#336,#351,#364,#376,#389,#405,#427,
#442,#456,#470,#483,#497,#514,#528));
#530=MANIFOLD_SOLID_BREP('',#529);
#532=DIMENSIONAL_EXPONENTS(0.E0,0.E0,0.E0,0.E0,0.E0,0.E0,0.E0);
#534=PLANE_ANGLE_MEASURE_WITH_UNIT(PLANE_ANGLE_MEASURE(1.745329251994E-2),#533);
#535=(CONVERSION_BASED_UNIT('DEGREE',#534)NAMED_UNIT(*)PLANE_ANGLE_UNIT());
#537=UNCERTAINTY_MEASURE_WITH_UNIT(LENGTH_MEASURE(1.023014821880E-3),#531,
'closure',
'Maximum model space distance between geometric entities at asserted connectivities');
#540=APPLICATION_CONTEXT(
'CONFIGURATION CONTROLLED 3D DESIGNS OF MECHANICAL PARTS AND ASSEMBLIES');
#541=APPLICATION_PROTOCOL_DEFINITION('international standard',
'config_control_design',1994,#540);
#542=DESIGN_CONTEXT('',#540,'design');
#543=MECHANICAL_CONTEXT('',#540,'mechanical');
#544=PRODUCT('MF-LS190RU','MF-LS190RU','NOT SPECIFIED',(#543));
#545=PRODUCT_DEFINITION_FORMATION_WITH_SPECIFIED_SOURCE('2','LAST_VERSION',#544,
.MADE.);
#549=PRODUCT_CATEGORY('part','');
#550=PRODUCT_RELATED_PRODUCT_CATEGORY('detail','',(#544));
#551=PRODUCT_CATEGORY_RELATIONSHIP('','',#549,#550);
#552=SECURITY_CLASSIFICATION_LEVEL('unclassified');
#553=SECURITY_CLASSIFICATION('','',#552);
#554=CC_DESIGN_SECURITY_CLASSIFICATION(#553,(#545));
#555=APPROVAL_STATUS('approved');
#556=APPROVAL(#555,'');
#557=CC_DESIGN_APPROVAL(#556,(#553,#545,#546));
#558=CALENDAR_DATE(112,26,7);
#559=COORDINATED_UNIVERSAL_TIME_OFFSET(7,0,.BEHIND.);
#560=LOCAL_TIME(13,52,3.1E1,#559);
#561=DATE_AND_TIME(#558,#560);
#562=APPROVAL_DATE_TIME(#561,#556);
#563=DATE_TIME_ROLE('creation_date');
#564=CC_DESIGN_DATE_AND_TIME_ASSIGNMENT(#561,#563,(#546));
#565=DATE_TIME_ROLE('classification_date');
#566=CC_DESIGN_DATE_AND_TIME_ASSIGNMENT(#561,#565,(#553));
#567=PERSON('UNSPECIFIED','UNSPECIFIED',$,$,$,$);
#568=ORGANIZATION('UNSPECIFIED','UNSPECIFIED','UNSPECIFIED');
#569=PERSON_AND_ORGANIZATION(#567,#568);
#570=APPROVAL_ROLE('approver');
#571=APPROVAL_PERSON_ORGANIZATION(#569,#556,#570);
#572=PERSON_AND_ORGANIZATION_ROLE('creator');
#573=CC_DESIGN_PERSON_AND_ORGANIZATION_ASSIGNMENT(#569,#572,(#545,#546));
#574=PERSON_AND_ORGANIZATION_ROLE('design_supplier');
#575=CC_DESIGN_PERSON_AND_ORGANIZATION_ASSIGNMENT(#569,#574,(#545));
#576=PERSON_AND_ORGANIZATION_ROLE('classification_officer');
#577=CC_DESIGN_PERSON_AND_ORGANIZATION_ASSIGNMENT(#569,#576,(#553));
#578=PERSON_AND_ORGANIZATION_ROLE('design_owner');
#579=CC_DESIGN_PERSON_AND_ORGANIZATION_ASSIGNMENT(#569,#578,(#544));
#133=CIRCLE('',#132,2.5E-1);
#162=CIRCLE('',#161,2.5E-1);
#252=EDGE_CURVE('',#190,#227,#4,.T.);
#254=EDGE_CURVE('',#227,#230,#8,.T.);
#256=EDGE_CURVE('',#230,#189,#12,.T.);
#258=EDGE_CURVE('',#189,#190,#16,.T.);
#262=ADVANCED_FACE('',(#261),#251,.F.);
#268=EDGE_CURVE('',#227,#228,#20,.T.);
#271=EDGE_CURVE('',#190,#222,#24,.T.);
#273=EDGE_CURVE('',#221,#222,#28,.T.);
#275=EDGE_CURVE('',#221,#193,#88,.T.);
#277=EDGE_CURVE('',#228,#193,#52,.T.);
#281=ADVANCED_FACE('',(#280),#267,.T.);
#288=EDGE_CURVE('',#210,#228,#32,.T.);
#290=EDGE_CURVE('',#209,#210,#36,.T.);
#292=EDGE_CURVE('',#227,#209,#40,.T.);
#296=ADVANCED_FACE('',(#295),#286,.T.);
#302=EDGE_CURVE('',#194,#213,#44,.T.);
#304=EDGE_CURVE('',#218,#213,#84,.T.);
#306=EDGE_CURVE('',#210,#218,#48,.T.);
#310=EDGE_CURVE('',#193,#194,#100,.T.);
#314=ADVANCED_FACE('',(#313),#301,.T.);
#321=EDGE_CURVE('',#230,#214,#64,.T.);
#323=EDGE_CURVE('',#213,#214,#72,.T.);
#326=EDGE_CURVE('',#194,#224,#96,.T.);
#328=EDGE_CURVE('',#224,#202,#56,.T.);
#330=EDGE_CURVE('',#202,#197,#178,.T.);
#332=EDGE_CURVE('',#197,#189,#60,.T.);
#336=ADVANCED_FACE('',(#335),#319,.T.);
#344=EDGE_CURVE('',#209,#216,#68,.T.);
#346=EDGE_CURVE('',#214,#216,#76,.T.);
#351=ADVANCED_FACE('',(#350),#341,.T.);
#359=EDGE_CURVE('',#216,#218,#80,.T.);
#364=ADVANCED_FACE('',(#363),#356,.T.);
#376=ADVANCED_FACE('',(#375),#369,.F.);
#383=EDGE_CURVE('',#221,#224,#92,.T.);
#389=ADVANCED_FACE('',(#388),#381,.T.);
#396=EDGE_CURVE('',#206,#221,#116,.T.);
#398=EDGE_CURVE('',#206,#201,#104,.T.);
#400=EDGE_CURVE('',#201,#202,#182,.T.);
#405=ADVANCED_FACE('',(#404),#394,.T.);
#411=EDGE_CURVE('',#233,#234,#108,.T.);
#413=EDGE_CURVE('',#233,#206,#112,.T.);
#417=EDGE_CURVE('',#222,#204,#120,.T.);
#419=EDGE_CURVE('',#204,#238,#124,.T.);
#421=EDGE_CURVE('',#238,#236,#128,.T.);
#423=EDGE_CURVE('',#234,#236,#133,.T.);
#427=ADVANCED_FACE('',(#426),#410,.F.);
#434=EDGE_CURVE('',#242,#234,#137,.T.);
#436=EDGE_CURVE('',#241,#242,#157,.T.);
#438=EDGE_CURVE('',#233,#241,#145,.T.);
#442=ADVANCED_FACE('',(#441),#432,.F.);
#449=EDGE_CURVE('',#244,#236,#141,.T.);
#451=EDGE_CURVE('',#242,#244,#162,.T.);
#456=ADVANCED_FACE('',(#455),#447,.F.);
#463=EDGE_CURVE('',#238,#246,#149,.T.);
#465=EDGE_CURVE('',#246,#244,#166,.T.);
#470=ADVANCED_FACE('',(#469),#461,.F.);
#477=EDGE_CURVE('',#241,#201,#186,.T.);
#483=ADVANCED_FACE('',(#482),#475,.T.);
#491=EDGE_CURVE('',#204,#198,#153,.T.);
#493=EDGE_CURVE('',#198,#246,#170,.T.);
#497=ADVANCED_FACE('',(#496),#488,.T.);
#507=EDGE_CURVE('',#197,#198,#174,.T.);
#514=ADVANCED_FACE('',(#513),#502,.T.);
#528=ADVANCED_FACE('',(#527),#519,.T.);
#531=(LENGTH_UNIT()NAMED_UNIT(*)SI_UNIT(.MILLI.,.METRE.));
#533=(NAMED_UNIT(*)PLANE_ANGLE_UNIT()SI_UNIT($,.RADIAN.));
#536=(NAMED_UNIT(*)SI_UNIT($,.STERADIAN.)SOLID_ANGLE_UNIT());
#538=(GEOMETRIC_REPRESENTATION_CONTEXT(3)GLOBAL_UNCERTAINTY_ASSIGNED_CONTEXT((
#537))GLOBAL_UNIT_ASSIGNED_CONTEXT((#531,#535,#536))REPRESENTATION_CONTEXT
('ID1','3'));
#539=ADVANCED_BREP_SHAPE_REPRESENTATION('',(#530),#538);
#546=PRODUCT_DEFINITION('design','',#545,#542);
#547=PRODUCT_DEFINITION_SHAPE('','SHAPE FOR MF-LS190RU.',#546);
#548=SHAPE_DEFINITION_REPRESENTATION(#547,#539);
ENDSEC;
END-ISO-10303-21;
