ISO-10303-21;
HEADER;
FILE_DESCRIPTION((''),'2;1');
FILE_NAME('CRA2010','2012-08-17T',('ryans'),('Bourns, Inc.'),
'PRO/ENGINEER BY PARAMETRIC TECHNOLOGY CORPORATION, 2010100',
'PRO/ENGINEER BY PARAMETRIC TECHNOLOGY CORPORATION, 2010100','');
FILE_SCHEMA(('CONFIG_CONTROL_DESIGN'));
ENDSEC;
DATA;
#1=DIRECTION('',(0.E0,0.E0,-1.E0));
#2=VECTOR('',#1,3.1E0);
#3=CARTESIAN_POINT('',(1.35E0,-2.5E-1,1.55E0));
#4=LINE('',#3,#2);
#5=DIRECTION('',(-1.E0,0.E0,0.E0));
#6=VECTOR('',#5,2.7E0);
#7=CARTESIAN_POINT('',(1.35E0,-2.5E-1,-1.55E0));
#8=LINE('',#7,#6);
#9=DIRECTION('',(0.E0,0.E0,-1.E0));
#10=VECTOR('',#9,3.1E0);
#11=CARTESIAN_POINT('',(-1.35E0,-2.5E-1,1.55E0));
#12=LINE('',#11,#10);
#13=DIRECTION('',(1.E0,0.E0,0.E0));
#14=VECTOR('',#13,2.7E0);
#15=CARTESIAN_POINT('',(-1.35E0,-2.5E-1,1.55E0));
#16=LINE('',#15,#14);
#17=DIRECTION('',(0.E0,-1.E0,0.E0));
#18=VECTOR('',#17,5.E-2);
#19=CARTESIAN_POINT('',(1.35E0,-2.5E-1,1.55E0));
#20=LINE('',#19,#18);
#21=DIRECTION('',(0.E0,-1.E0,0.E0));
#22=VECTOR('',#21,5.E-2);
#23=CARTESIAN_POINT('',(-1.35E0,-2.5E-1,1.55E0));
#24=LINE('',#23,#22);
#25=DIRECTION('',(-1.E0,0.E0,0.E0));
#26=VECTOR('',#25,1.8E0);
#27=CARTESIAN_POINT('',(-1.35E0,-3.E-1,1.55E0));
#28=LINE('',#27,#26);
#29=DIRECTION('',(0.E0,1.E0,0.E0));
#30=VECTOR('',#29,5.E-2);
#31=CARTESIAN_POINT('',(2.55E0,2.5E-1,1.55E0));
#32=LINE('',#31,#30);
#33=DIRECTION('',(-1.E0,0.E0,0.E0));
#34=VECTOR('',#33,1.8E0);
#35=CARTESIAN_POINT('',(3.15E0,-3.E-1,1.55E0));
#36=LINE('',#35,#34);
#37=DIRECTION('',(0.E0,-1.E0,0.E0));
#38=VECTOR('',#37,5.E-2);
#39=CARTESIAN_POINT('',(-1.35E0,-2.5E-1,-1.55E0));
#40=LINE('',#39,#38);
#41=DIRECTION('',(1.E0,0.E0,0.E0));
#42=VECTOR('',#41,1.8E0);
#43=CARTESIAN_POINT('',(-3.15E0,-3.E-1,-1.55E0));
#44=LINE('',#43,#42);
#45=DIRECTION('',(0.E0,-1.E0,0.E0));
#46=VECTOR('',#45,5.E-2);
#47=CARTESIAN_POINT('',(1.35E0,-2.5E-1,-1.55E0));
#48=LINE('',#47,#46);
#49=DIRECTION('',(1.E0,0.E0,0.E0));
#50=VECTOR('',#49,1.8E0);
#51=CARTESIAN_POINT('',(1.35E0,-3.E-1,-1.55E0));
#52=LINE('',#51,#50);
#53=DIRECTION('',(0.E0,1.E0,0.E0));
#54=VECTOR('',#53,6.E-1);
#55=CARTESIAN_POINT('',(3.15E0,-3.E-1,-1.55E0));
#56=LINE('',#55,#54);
#57=DIRECTION('',(0.E0,1.E0,0.E0));
#58=VECTOR('',#57,5.E-2);
#59=CARTESIAN_POINT('',(-2.55E0,2.5E-1,-1.55E0));
#60=LINE('',#59,#58);
#61=DIRECTION('',(0.E0,0.E0,-1.E0));
#62=VECTOR('',#61,3.1E0);
#63=CARTESIAN_POINT('',(1.35E0,-3.E-1,1.55E0));
#64=LINE('',#63,#62);
#65=DIRECTION('',(0.E0,0.E0,-1.E0));
#66=VECTOR('',#65,3.1E0);
#67=CARTESIAN_POINT('',(3.15E0,-3.E-1,1.55E0));
#68=LINE('',#67,#66);
#69=DIRECTION('',(0.E0,0.E0,1.E0));
#70=VECTOR('',#69,3.1E0);
#71=CARTESIAN_POINT('',(-1.35E0,-3.E-1,-1.55E0));
#72=LINE('',#71,#70);
#73=DIRECTION('',(0.E0,0.E0,1.E0));
#74=VECTOR('',#73,3.1E0);
#75=CARTESIAN_POINT('',(-3.15E0,-3.E-1,-1.55E0));
#76=LINE('',#75,#74);
#77=DIRECTION('',(0.E0,1.E0,0.E0));
#78=VECTOR('',#77,6.E-1);
#79=CARTESIAN_POINT('',(3.15E0,-3.E-1,1.55E0));
#80=LINE('',#79,#78);
#81=DIRECTION('',(0.E0,0.E0,1.E0));
#82=VECTOR('',#81,3.1E0);
#83=CARTESIAN_POINT('',(2.55E0,3.E-1,-1.55E0));
#84=LINE('',#83,#82);
#85=DIRECTION('',(-1.E0,0.E0,0.E0));
#86=VECTOR('',#85,6.E-1);
#87=CARTESIAN_POINT('',(3.15E0,3.E-1,-1.55E0));
#88=LINE('',#87,#86);
#89=DIRECTION('',(0.E0,0.E0,-1.E0));
#90=VECTOR('',#89,3.1E0);
#91=CARTESIAN_POINT('',(3.15E0,3.E-1,1.55E0));
#92=LINE('',#91,#90);
#93=DIRECTION('',(1.E0,0.E0,0.E0));
#94=VECTOR('',#93,6.E-1);
#95=CARTESIAN_POINT('',(2.55E0,3.E-1,1.55E0));
#96=LINE('',#95,#94);
#97=DIRECTION('',(-1.E0,0.E0,0.E0));
#98=VECTOR('',#97,6.E-1);
#99=CARTESIAN_POINT('',(-2.55E0,3.E-1,-1.55E0));
#100=LINE('',#99,#98);
#101=DIRECTION('',(0.E0,0.E0,-1.E0));
#102=VECTOR('',#101,3.1E0);
#103=CARTESIAN_POINT('',(-2.55E0,3.E-1,1.55E0));
#104=LINE('',#103,#102);
#105=DIRECTION('',(1.E0,0.E0,0.E0));
#106=VECTOR('',#105,6.E-1);
#107=CARTESIAN_POINT('',(-3.15E0,3.E-1,1.55E0));
#108=LINE('',#107,#106);
#109=DIRECTION('',(0.E0,0.E0,1.E0));
#110=VECTOR('',#109,3.1E0);
#111=CARTESIAN_POINT('',(-3.15E0,3.E-1,-1.55E0));
#112=LINE('',#111,#110);
#113=DIRECTION('',(0.E0,1.E0,0.E0));
#114=VECTOR('',#113,5.E-2);
#115=CARTESIAN_POINT('',(2.55E0,2.5E-1,-1.55E0));
#116=LINE('',#115,#114);
#117=DIRECTION('',(0.E0,0.E0,-1.E0));
#118=VECTOR('',#117,3.1E0);
#119=CARTESIAN_POINT('',(2.55E0,2.5E-1,1.55E0));
#120=LINE('',#119,#118);
#121=DIRECTION('',(1.E0,0.E0,0.E0));
#122=VECTOR('',#121,5.1E0);
#123=CARTESIAN_POINT('',(-2.55E0,2.5E-1,1.55E0));
#124=LINE('',#123,#122);
#125=DIRECTION('',(0.E0,0.E0,-1.E0));
#126=VECTOR('',#125,3.1E0);
#127=CARTESIAN_POINT('',(-2.55E0,2.5E-1,1.55E0));
#128=LINE('',#127,#126);
#129=DIRECTION('',(-1.E0,0.E0,0.E0));
#130=VECTOR('',#129,5.1E0);
#131=CARTESIAN_POINT('',(2.55E0,2.5E-1,-1.55E0));
#132=LINE('',#131,#130);
#133=DIRECTION('',(0.E0,1.E0,0.E0));
#134=VECTOR('',#133,5.E-2);
#135=CARTESIAN_POINT('',(-2.55E0,2.5E-1,1.55E0));
#136=LINE('',#135,#134);
#137=DIRECTION('',(0.E0,1.E0,0.E0));
#138=VECTOR('',#137,6.E-1);
#139=CARTESIAN_POINT('',(-3.15E0,-3.E-1,-1.55E0));
#140=LINE('',#139,#138);
#141=DIRECTION('',(0.E0,-1.E0,0.E0));
#142=VECTOR('',#141,6.E-1);
#143=CARTESIAN_POINT('',(-3.15E0,3.E-1,1.55E0));
#144=LINE('',#143,#142);
#145=CARTESIAN_POINT('',(3.15E0,-3.E-1,1.55E0));
#146=CARTESIAN_POINT('',(3.15E0,-3.E-1,-1.55E0));
#147=VERTEX_POINT('',#145);
#148=VERTEX_POINT('',#146);
#149=CARTESIAN_POINT('',(-3.15E0,-3.E-1,-1.55E0));
#150=CARTESIAN_POINT('',(-3.15E0,-3.E-1,1.55E0));
#151=VERTEX_POINT('',#149);
#152=VERTEX_POINT('',#150);
#153=CARTESIAN_POINT('',(2.55E0,3.E-1,-1.55E0));
#154=CARTESIAN_POINT('',(2.55E0,3.E-1,1.55E0));
#155=VERTEX_POINT('',#153);
#156=VERTEX_POINT('',#154);
#157=CARTESIAN_POINT('',(3.15E0,3.E-1,1.55E0));
#158=VERTEX_POINT('',#157);
#159=CARTESIAN_POINT('',(3.15E0,3.E-1,-1.55E0));
#160=VERTEX_POINT('',#159);
#161=CARTESIAN_POINT('',(-2.55E0,3.E-1,-1.55E0));
#162=CARTESIAN_POINT('',(-3.15E0,3.E-1,-1.55E0));
#163=VERTEX_POINT('',#161);
#164=VERTEX_POINT('',#162);
#165=CARTESIAN_POINT('',(-3.15E0,3.E-1,1.55E0));
#166=VERTEX_POINT('',#165);
#167=CARTESIAN_POINT('',(-2.55E0,3.E-1,1.55E0));
#168=VERTEX_POINT('',#167);
#169=CARTESIAN_POINT('',(2.55E0,2.5E-1,1.55E0));
#170=CARTESIAN_POINT('',(2.55E0,2.5E-1,-1.55E0));
#171=VERTEX_POINT('',#169);
#172=VERTEX_POINT('',#170);
#173=CARTESIAN_POINT('',(-2.55E0,2.5E-1,1.55E0));
#174=CARTESIAN_POINT('',(-2.55E0,2.5E-1,-1.55E0));
#175=VERTEX_POINT('',#173);
#176=VERTEX_POINT('',#174);
#177=CARTESIAN_POINT('',(1.35E0,-3.E-1,1.55E0));
#178=CARTESIAN_POINT('',(1.35E0,-3.E-1,-1.55E0));
#179=VERTEX_POINT('',#177);
#180=VERTEX_POINT('',#178);
#181=CARTESIAN_POINT('',(-1.35E0,-3.E-1,-1.55E0));
#182=CARTESIAN_POINT('',(-1.35E0,-3.E-1,1.55E0));
#183=VERTEX_POINT('',#181);
#184=VERTEX_POINT('',#182);
#185=CARTESIAN_POINT('',(1.35E0,-2.5E-1,1.55E0));
#186=CARTESIAN_POINT('',(1.35E0,-2.5E-1,-1.55E0));
#187=VERTEX_POINT('',#185);
#188=VERTEX_POINT('',#186);
#189=CARTESIAN_POINT('',(-1.35E0,-2.5E-1,1.55E0));
#190=CARTESIAN_POINT('',(-1.35E0,-2.5E-1,-1.55E0));
#191=VERTEX_POINT('',#189);
#192=VERTEX_POINT('',#190);
#193=CARTESIAN_POINT('',(0.E0,-2.5E-1,0.E0));
#194=DIRECTION('',(0.E0,1.E0,0.E0));
#195=DIRECTION('',(1.E0,0.E0,0.E0));
#196=AXIS2_PLACEMENT_3D('',#193,#194,#195);
#197=PLANE('',#196);
#199=ORIENTED_EDGE('',*,*,#198,.T.);
#201=ORIENTED_EDGE('',*,*,#200,.T.);
#203=ORIENTED_EDGE('',*,*,#202,.F.);
#205=ORIENTED_EDGE('',*,*,#204,.T.);
#206=EDGE_LOOP('',(#199,#201,#203,#205));
#207=FACE_OUTER_BOUND('',#206,.F.);
#209=CARTESIAN_POINT('',(1.35E0,-2.5E-1,1.55E0));
#210=DIRECTION('',(-1.E0,0.E0,0.E0));
#211=DIRECTION('',(0.E0,0.E0,-1.E0));
#212=AXIS2_PLACEMENT_3D('',#209,#210,#211);
#213=PLANE('',#212);
#214=ORIENTED_EDGE('',*,*,#198,.F.);
#216=ORIENTED_EDGE('',*,*,#215,.T.);
#218=ORIENTED_EDGE('',*,*,#217,.T.);
#220=ORIENTED_EDGE('',*,*,#219,.F.);
#221=EDGE_LOOP('',(#214,#216,#218,#220));
#222=FACE_OUTER_BOUND('',#221,.F.);
#224=CARTESIAN_POINT('',(-3.15E0,-2.5E-1,1.55E0));
#225=DIRECTION('',(0.E0,0.E0,1.E0));
#226=DIRECTION('',(1.E0,0.E0,0.E0));
#227=AXIS2_PLACEMENT_3D('',#224,#225,#226);
#228=PLANE('',#227);
#229=ORIENTED_EDGE('',*,*,#204,.F.);
#231=ORIENTED_EDGE('',*,*,#230,.T.);
#233=ORIENTED_EDGE('',*,*,#232,.T.);
#235=ORIENTED_EDGE('',*,*,#234,.F.);
#237=ORIENTED_EDGE('',*,*,#236,.T.);
#239=ORIENTED_EDGE('',*,*,#238,.F.);
#241=ORIENTED_EDGE('',*,*,#240,.T.);
#243=ORIENTED_EDGE('',*,*,#242,.T.);
#245=ORIENTED_EDGE('',*,*,#244,.T.);
#247=ORIENTED_EDGE('',*,*,#246,.F.);
#249=ORIENTED_EDGE('',*,*,#248,.T.);
#250=ORIENTED_EDGE('',*,*,#215,.F.);
#251=EDGE_LOOP('',(#229,#231,#233,#235,#237,#239,#241,#243,#245,#247,#249,
#250));
#252=FACE_OUTER_BOUND('',#251,.F.);
#254=CARTESIAN_POINT('',(-1.35E0,-2.5E-1,-1.55E0));
#255=DIRECTION('',(1.E0,0.E0,0.E0));
#256=DIRECTION('',(0.E0,0.E0,1.E0));
#257=AXIS2_PLACEMENT_3D('',#254,#255,#256);
#258=PLANE('',#257);
#259=ORIENTED_EDGE('',*,*,#202,.T.);
#261=ORIENTED_EDGE('',*,*,#260,.T.);
#263=ORIENTED_EDGE('',*,*,#262,.T.);
#264=ORIENTED_EDGE('',*,*,#230,.F.);
#265=EDGE_LOOP('',(#259,#261,#263,#264));
#266=FACE_OUTER_BOUND('',#265,.F.);
#268=CARTESIAN_POINT('',(3.15E0,-2.5E-1,-1.55E0));
#269=DIRECTION('',(0.E0,0.E0,-1.E0));
#270=DIRECTION('',(-1.E0,0.E0,0.E0));
#271=AXIS2_PLACEMENT_3D('',#268,#269,#270);
#272=PLANE('',#271);
#274=ORIENTED_EDGE('',*,*,#273,.T.);
#275=ORIENTED_EDGE('',*,*,#260,.F.);
#276=ORIENTED_EDGE('',*,*,#200,.F.);
#277=ORIENTED_EDGE('',*,*,#219,.T.);
#279=ORIENTED_EDGE('',*,*,#278,.T.);
#281=ORIENTED_EDGE('',*,*,#280,.T.);
#283=ORIENTED_EDGE('',*,*,#282,.T.);
#285=ORIENTED_EDGE('',*,*,#284,.F.);
#287=ORIENTED_EDGE('',*,*,#286,.T.);
#289=ORIENTED_EDGE('',*,*,#288,.T.);
#291=ORIENTED_EDGE('',*,*,#290,.T.);
#293=ORIENTED_EDGE('',*,*,#292,.F.);
#294=EDGE_LOOP('',(#274,#275,#276,#277,#279,#281,#283,#285,#287,#289,#291,
#293));
#295=FACE_OUTER_BOUND('',#294,.F.);
#297=CARTESIAN_POINT('',(0.E0,-3.E-1,0.E0));
#298=DIRECTION('',(0.E0,1.E0,0.E0));
#299=DIRECTION('',(1.E0,0.E0,0.E0));
#300=AXIS2_PLACEMENT_3D('',#297,#298,#299);
#301=PLANE('',#300);
#302=ORIENTED_EDGE('',*,*,#278,.F.);
#303=ORIENTED_EDGE('',*,*,#217,.F.);
#304=ORIENTED_EDGE('',*,*,#248,.F.);
#306=ORIENTED_EDGE('',*,*,#305,.T.);
#307=EDGE_LOOP('',(#302,#303,#304,#306));
#308=FACE_OUTER_BOUND('',#307,.F.);
#310=CARTESIAN_POINT('',(0.E0,-3.E-1,0.E0));
#311=DIRECTION('',(0.E0,1.E0,0.E0));
#312=DIRECTION('',(1.E0,0.E0,0.E0));
#313=AXIS2_PLACEMENT_3D('',#310,#311,#312);
#314=PLANE('',#313);
#315=ORIENTED_EDGE('',*,*,#232,.F.);
#316=ORIENTED_EDGE('',*,*,#262,.F.);
#317=ORIENTED_EDGE('',*,*,#273,.F.);
#319=ORIENTED_EDGE('',*,*,#318,.T.);
#320=EDGE_LOOP('',(#315,#316,#317,#319));
#321=FACE_OUTER_BOUND('',#320,.F.);
#323=CARTESIAN_POINT('',(3.15E0,-2.5E-1,1.55E0));
#324=DIRECTION('',(1.E0,0.E0,0.E0));
#325=DIRECTION('',(0.E0,0.E0,-1.E0));
#326=AXIS2_PLACEMENT_3D('',#323,#324,#325);
#327=PLANE('',#326);
#328=ORIENTED_EDGE('',*,*,#246,.T.);
#330=ORIENTED_EDGE('',*,*,#329,.T.);
#331=ORIENTED_EDGE('',*,*,#280,.F.);
#332=ORIENTED_EDGE('',*,*,#305,.F.);
#333=EDGE_LOOP('',(#328,#330,#331,#332));
#334=FACE_OUTER_BOUND('',#333,.F.);
#336=CARTESIAN_POINT('',(0.E0,3.E-1,0.E0));
#337=DIRECTION('',(0.E0,1.E0,0.E0));
#338=DIRECTION('',(1.E0,0.E0,0.E0));
#339=AXIS2_PLACEMENT_3D('',#336,#337,#338);
#340=PLANE('',#339);
#342=ORIENTED_EDGE('',*,*,#341,.F.);
#343=ORIENTED_EDGE('',*,*,#282,.F.);
#344=ORIENTED_EDGE('',*,*,#329,.F.);
#345=ORIENTED_EDGE('',*,*,#244,.F.);
#346=EDGE_LOOP('',(#342,#343,#344,#345));
#347=FACE_OUTER_BOUND('',#346,.F.);
#349=CARTESIAN_POINT('',(0.E0,3.E-1,0.E0));
#350=DIRECTION('',(0.E0,1.E0,0.E0));
#351=DIRECTION('',(1.E0,0.E0,0.E0));
#352=AXIS2_PLACEMENT_3D('',#349,#350,#351);
#353=PLANE('',#352);
#354=ORIENTED_EDGE('',*,*,#290,.F.);
#356=ORIENTED_EDGE('',*,*,#355,.F.);
#357=ORIENTED_EDGE('',*,*,#236,.F.);
#359=ORIENTED_EDGE('',*,*,#358,.F.);
#360=EDGE_LOOP('',(#354,#356,#357,#359));
#361=FACE_OUTER_BOUND('',#360,.F.);
#363=CARTESIAN_POINT('',(2.55E0,-3.E-1,-1.55E0));
#364=DIRECTION('',(-1.E0,0.E0,0.E0));
#365=DIRECTION('',(0.E0,0.E0,1.E0));
#366=AXIS2_PLACEMENT_3D('',#363,#364,#365);
#367=PLANE('',#366);
#369=ORIENTED_EDGE('',*,*,#368,.T.);
#370=ORIENTED_EDGE('',*,*,#284,.T.);
#371=ORIENTED_EDGE('',*,*,#341,.T.);
#372=ORIENTED_EDGE('',*,*,#242,.F.);
#373=EDGE_LOOP('',(#369,#370,#371,#372));
#374=FACE_OUTER_BOUND('',#373,.F.);
#376=CARTESIAN_POINT('',(0.E0,2.5E-1,0.E0));
#377=DIRECTION('',(0.E0,1.E0,0.E0));
#378=DIRECTION('',(1.E0,0.E0,0.E0));
#379=AXIS2_PLACEMENT_3D('',#376,#377,#378);
#380=PLANE('',#379);
#381=ORIENTED_EDGE('',*,*,#368,.F.);
#382=ORIENTED_EDGE('',*,*,#240,.F.);
#384=ORIENTED_EDGE('',*,*,#383,.T.);
#385=ORIENTED_EDGE('',*,*,#286,.F.);
#386=EDGE_LOOP('',(#381,#382,#384,#385));
#387=FACE_OUTER_BOUND('',#386,.F.);
#389=CARTESIAN_POINT('',(-2.55E0,-3.E-1,1.55E0));
#390=DIRECTION('',(1.E0,0.E0,0.E0));
#391=DIRECTION('',(0.E0,0.E0,-1.E0));
#392=AXIS2_PLACEMENT_3D('',#389,#390,#391);
#393=PLANE('',#392);
#394=ORIENTED_EDGE('',*,*,#383,.F.);
#395=ORIENTED_EDGE('',*,*,#238,.T.);
#396=ORIENTED_EDGE('',*,*,#355,.T.);
#397=ORIENTED_EDGE('',*,*,#288,.F.);
#398=EDGE_LOOP('',(#394,#395,#396,#397));
#399=FACE_OUTER_BOUND('',#398,.F.);
#401=CARTESIAN_POINT('',(-3.15E0,-2.5E-1,-1.55E0));
#402=DIRECTION('',(-1.E0,0.E0,0.E0));
#403=DIRECTION('',(0.E0,0.E0,1.E0));
#404=AXIS2_PLACEMENT_3D('',#401,#402,#403);
#405=PLANE('',#404);
#406=ORIENTED_EDGE('',*,*,#292,.T.);
#407=ORIENTED_EDGE('',*,*,#358,.T.);
#408=ORIENTED_EDGE('',*,*,#234,.T.);
#409=ORIENTED_EDGE('',*,*,#318,.F.);
#410=EDGE_LOOP('',(#406,#407,#408,#409));
#411=FACE_OUTER_BOUND('',#410,.F.);
#413=CLOSED_SHELL('',(#208,#223,#253,#267,#296,#309,#322,#335,#348,#362,#375,
#388,#400,#412));
#414=MANIFOLD_SOLID_BREP('',#413);
#416=DIMENSIONAL_EXPONENTS(0.E0,0.E0,0.E0,0.E0,0.E0,0.E0,0.E0);
#418=PLANE_ANGLE_MEASURE_WITH_UNIT(PLANE_ANGLE_MEASURE(1.745329251994E-2),#417);
#419=(CONVERSION_BASED_UNIT('DEGREE',#418)NAMED_UNIT(*)PLANE_ANGLE_UNIT());
#421=UNCERTAINTY_MEASURE_WITH_UNIT(LENGTH_MEASURE(2.936126371488E-4),#415,
'closure',
'Maximum model space distance between geometric entities at asserted connectivities');
#424=APPLICATION_CONTEXT(
'CONFIGURATION CONTROLLED 3D DESIGNS OF MECHANICAL PARTS AND ASSEMBLIES');
#425=APPLICATION_PROTOCOL_DEFINITION('international standard',
'config_control_design',1994,#424);
#426=DESIGN_CONTEXT('',#424,'design');
#427=MECHANICAL_CONTEXT('',#424,'mechanical');
#428=PRODUCT('CRA2010','CRA2010','NOT SPECIFIED',(#427));
#429=PRODUCT_DEFINITION_FORMATION_WITH_SPECIFIED_SOURCE('1','LAST_VERSION',#428,
.MADE.);
#433=PRODUCT_CATEGORY('part','');
#434=PRODUCT_RELATED_PRODUCT_CATEGORY('detail','',(#428));
#435=PRODUCT_CATEGORY_RELATIONSHIP('','',#433,#434);
#436=SECURITY_CLASSIFICATION_LEVEL('unclassified');
#437=SECURITY_CLASSIFICATION('','',#436);
#438=CC_DESIGN_SECURITY_CLASSIFICATION(#437,(#429));
#439=APPROVAL_STATUS('approved');
#440=APPROVAL(#439,'');
#441=CC_DESIGN_APPROVAL(#440,(#437,#429,#430));
#442=CALENDAR_DATE(112,17,8);
#443=COORDINATED_UNIVERSAL_TIME_OFFSET(7,0,.BEHIND.);
#444=LOCAL_TIME(9,34,1.6E1,#443);
#445=DATE_AND_TIME(#442,#444);
#446=APPROVAL_DATE_TIME(#445,#440);
#447=DATE_TIME_ROLE('creation_date');
#448=CC_DESIGN_DATE_AND_TIME_ASSIGNMENT(#445,#447,(#430));
#449=DATE_TIME_ROLE('classification_date');
#450=CC_DESIGN_DATE_AND_TIME_ASSIGNMENT(#445,#449,(#437));
#451=PERSON('UNSPECIFIED','UNSPECIFIED',$,$,$,$);
#452=ORGANIZATION('UNSPECIFIED','UNSPECIFIED','UNSPECIFIED');
#453=PERSON_AND_ORGANIZATION(#451,#452);
#454=APPROVAL_ROLE('approver');
#455=APPROVAL_PERSON_ORGANIZATION(#453,#440,#454);
#456=PERSON_AND_ORGANIZATION_ROLE('creator');
#457=CC_DESIGN_PERSON_AND_ORGANIZATION_ASSIGNMENT(#453,#456,(#429,#430));
#458=PERSON_AND_ORGANIZATION_ROLE('design_supplier');
#459=CC_DESIGN_PERSON_AND_ORGANIZATION_ASSIGNMENT(#453,#458,(#429));
#460=PERSON_AND_ORGANIZATION_ROLE('classification_officer');
#461=CC_DESIGN_PERSON_AND_ORGANIZATION_ASSIGNMENT(#453,#460,(#437));
#462=PERSON_AND_ORGANIZATION_ROLE('design_owner');
#463=CC_DESIGN_PERSON_AND_ORGANIZATION_ASSIGNMENT(#453,#462,(#428));
#198=EDGE_CURVE('',#187,#188,#4,.T.);
#200=EDGE_CURVE('',#188,#192,#8,.T.);
#202=EDGE_CURVE('',#191,#192,#12,.T.);
#204=EDGE_CURVE('',#191,#187,#16,.T.);
#208=ADVANCED_FACE('',(#207),#197,.F.);
#215=EDGE_CURVE('',#187,#179,#20,.T.);
#217=EDGE_CURVE('',#179,#180,#64,.T.);
#219=EDGE_CURVE('',#188,#180,#48,.T.);
#223=ADVANCED_FACE('',(#222),#213,.T.);
#230=EDGE_CURVE('',#191,#184,#24,.T.);
#232=EDGE_CURVE('',#184,#152,#28,.T.);
#234=EDGE_CURVE('',#166,#152,#144,.T.);
#236=EDGE_CURVE('',#166,#168,#108,.T.);
#238=EDGE_CURVE('',#175,#168,#136,.T.);
#240=EDGE_CURVE('',#175,#171,#124,.T.);
#242=EDGE_CURVE('',#171,#156,#32,.T.);
#244=EDGE_CURVE('',#156,#158,#96,.T.);
#246=EDGE_CURVE('',#147,#158,#80,.T.);
#248=EDGE_CURVE('',#147,#179,#36,.T.);
#253=ADVANCED_FACE('',(#252),#228,.T.);
#260=EDGE_CURVE('',#192,#183,#40,.T.);
#262=EDGE_CURVE('',#183,#184,#72,.T.);
#267=ADVANCED_FACE('',(#266),#258,.T.);
#273=EDGE_CURVE('',#151,#183,#44,.T.);
#278=EDGE_CURVE('',#180,#148,#52,.T.);
#280=EDGE_CURVE('',#148,#160,#56,.T.);
#282=EDGE_CURVE('',#160,#155,#88,.T.);
#284=EDGE_CURVE('',#172,#155,#116,.T.);
#286=EDGE_CURVE('',#172,#176,#132,.T.);
#288=EDGE_CURVE('',#176,#163,#60,.T.);
#290=EDGE_CURVE('',#163,#164,#100,.T.);
#292=EDGE_CURVE('',#151,#164,#140,.T.);
#296=ADVANCED_FACE('',(#295),#272,.T.);
#305=EDGE_CURVE('',#147,#148,#68,.T.);
#309=ADVANCED_FACE('',(#308),#301,.F.);
#318=EDGE_CURVE('',#151,#152,#76,.T.);
#322=ADVANCED_FACE('',(#321),#314,.F.);
#329=EDGE_CURVE('',#158,#160,#92,.T.);
#335=ADVANCED_FACE('',(#334),#327,.T.);
#341=EDGE_CURVE('',#155,#156,#84,.T.);
#348=ADVANCED_FACE('',(#347),#340,.T.);
#355=EDGE_CURVE('',#168,#163,#104,.T.);
#358=EDGE_CURVE('',#164,#166,#112,.T.);
#362=ADVANCED_FACE('',(#361),#353,.T.);
#368=EDGE_CURVE('',#171,#172,#120,.T.);
#375=ADVANCED_FACE('',(#374),#367,.T.);
#383=EDGE_CURVE('',#175,#176,#128,.T.);
#388=ADVANCED_FACE('',(#387),#380,.T.);
#400=ADVANCED_FACE('',(#399),#393,.T.);
#412=ADVANCED_FACE('',(#411),#405,.T.);
#415=(LENGTH_UNIT()NAMED_UNIT(*)SI_UNIT(.MILLI.,.METRE.));
#417=(NAMED_UNIT(*)PLANE_ANGLE_UNIT()SI_UNIT($,.RADIAN.));
#420=(NAMED_UNIT(*)SI_UNIT($,.STERADIAN.)SOLID_ANGLE_UNIT());
#422=(GEOMETRIC_REPRESENTATION_CONTEXT(3)GLOBAL_UNCERTAINTY_ASSIGNED_CONTEXT((
#421))GLOBAL_UNIT_ASSIGNED_CONTEXT((#415,#419,#420))REPRESENTATION_CONTEXT
('ID1','3'));
#423=ADVANCED_BREP_SHAPE_REPRESENTATION('',(#414),#422);
#430=PRODUCT_DEFINITION('design','',#429,#426);
#431=PRODUCT_DEFINITION_SHAPE('','SHAPE FOR CRA2010.',#430);
#432=SHAPE_DEFINITION_REPRESENTATION(#431,#423);
ENDSEC;
END-ISO-10303-21;
