ISO-10303-21;
HEADER;
FILE_DESCRIPTION((''),'2;1');
FILE_NAME('CHF2010CNP500L','2012-08-20T',('ryans'),('Bourns, Inc.'),
'PRO/ENGINEER BY PARAMETRIC TECHNOLOGY CORPORATION, 2010100',
'PRO/ENGINEER BY PARAMETRIC TECHNOLOGY CORPORATION, 2010100','');
FILE_SCHEMA(('CONFIG_CONTROL_DESIGN'));
ENDSEC;
DATA;
#1=DIRECTION('',(1.E0,0.E0,0.E0));
#2=VECTOR('',#1,7.6E-1);
#3=CARTESIAN_POINT('',(-2.65E0,0.E0,1.35E0));
#4=LINE('',#3,#2);
#5=DIRECTION('',(0.E0,0.E0,-1.E0));
#6=VECTOR('',#5,2.7E0);
#7=CARTESIAN_POINT('',(-1.89E0,0.E0,1.35E0));
#8=LINE('',#7,#6);
#9=DIRECTION('',(-1.E0,0.E0,0.E0));
#10=VECTOR('',#9,7.6E-1);
#11=CARTESIAN_POINT('',(-1.89E0,0.E0,-1.35E0));
#12=LINE('',#11,#10);
#13=DIRECTION('',(0.E0,0.E0,1.E0));
#14=VECTOR('',#13,2.7E0);
#15=CARTESIAN_POINT('',(-2.65E0,0.E0,-1.35E0));
#16=LINE('',#15,#14);
#17=DIRECTION('',(1.E0,0.E0,0.E0));
#18=VECTOR('',#17,3.96E0);
#19=CARTESIAN_POINT('',(-1.31E0,0.E0,1.35E0));
#20=LINE('',#19,#18);
#21=DIRECTION('',(0.E0,0.E0,-1.E0));
#22=VECTOR('',#21,2.7E0);
#23=CARTESIAN_POINT('',(2.65E0,0.E0,1.35E0));
#24=LINE('',#23,#22);
#25=DIRECTION('',(-1.E0,0.E0,0.E0));
#26=VECTOR('',#25,3.96E0);
#27=CARTESIAN_POINT('',(2.65E0,0.E0,-1.35E0));
#28=LINE('',#27,#26);
#29=DIRECTION('',(0.E0,0.E0,-1.E0));
#30=VECTOR('',#29,2.7E0);
#31=CARTESIAN_POINT('',(-1.31E0,0.E0,1.35E0));
#32=LINE('',#31,#30);
#33=DIRECTION('',(1.E0,0.E0,-2.220446049250E-14));
#34=VECTOR('',#33,1.E-2);
#35=CARTESIAN_POINT('',(-1.65E0,1.19E0,1.35E0));
#36=LINE('',#35,#34);
#37=DIRECTION('',(0.E0,-1.E0,0.E0));
#38=VECTOR('',#37,1.E-2);
#39=CARTESIAN_POINT('',(-1.64E0,1.2E0,1.35E0));
#40=LINE('',#39,#38);
#41=DIRECTION('',(0.E0,-1.E0,-2.220446049250E-14));
#42=VECTOR('',#41,1.E-2);
#43=CARTESIAN_POINT('',(1.64E0,1.2E0,1.35E0));
#44=LINE('',#43,#42);
#45=DIRECTION('',(1.E0,0.E0,-2.220446049250E-14));
#46=VECTOR('',#45,1.E-2);
#47=CARTESIAN_POINT('',(1.64E0,1.19E0,1.35E0));
#48=LINE('',#47,#46);
#49=DIRECTION('',(0.E0,-1.E0,0.E0));
#50=VECTOR('',#49,1.E-2);
#51=CARTESIAN_POINT('',(1.65E0,1.2E0,1.35E0));
#52=LINE('',#51,#50);
#53=DIRECTION('',(0.E0,1.E0,0.E0));
#54=VECTOR('',#53,2.E-1);
#55=CARTESIAN_POINT('',(-1.31E0,0.E0,1.35E0));
#56=LINE('',#55,#54);
#57=DIRECTION('',(1.E0,0.E0,0.E0));
#58=VECTOR('',#57,5.8E-1);
#59=CARTESIAN_POINT('',(-1.89E0,2.E-1,1.35E0));
#60=LINE('',#59,#58);
#61=DIRECTION('',(0.E0,1.E0,0.E0));
#62=VECTOR('',#61,2.E-1);
#63=CARTESIAN_POINT('',(-1.89E0,0.E0,1.35E0));
#64=LINE('',#63,#62);
#65=DIRECTION('',(0.E0,1.E0,0.E0));
#66=VECTOR('',#65,1.2E0);
#67=CARTESIAN_POINT('',(-2.65E0,0.E0,1.35E0));
#68=LINE('',#67,#66);
#69=DIRECTION('',(0.E0,-1.E0,-2.220446049250E-14));
#70=VECTOR('',#69,1.E-2);
#71=CARTESIAN_POINT('',(-1.65E0,1.2E0,1.35E0));
#72=LINE('',#71,#70);
#73=DIRECTION('',(0.E0,0.E0,1.E0));
#74=VECTOR('',#73,2.7E0);
#75=CARTESIAN_POINT('',(-1.65E0,1.19E0,-1.35E0));
#76=LINE('',#75,#74);
#77=DIRECTION('',(0.E0,0.E0,-1.E0));
#78=VECTOR('',#77,2.7E0);
#79=CARTESIAN_POINT('',(-1.64E0,1.19E0,1.35E0));
#80=LINE('',#79,#78);
#81=DIRECTION('',(0.E0,0.E0,1.E0));
#82=VECTOR('',#81,2.7E0);
#83=CARTESIAN_POINT('',(1.64E0,1.19E0,-1.35E0));
#84=LINE('',#83,#82);
#85=DIRECTION('',(0.E0,0.E0,-1.E0));
#86=VECTOR('',#85,2.7E0);
#87=CARTESIAN_POINT('',(1.65E0,1.19E0,1.35E0));
#88=LINE('',#87,#86);
#89=DIRECTION('',(0.E0,0.E0,-1.E0));
#90=VECTOR('',#89,2.7E0);
#91=CARTESIAN_POINT('',(1.64E0,1.2E0,1.35E0));
#92=LINE('',#91,#90);
#93=DIRECTION('',(1.E0,0.E0,0.E0));
#94=VECTOR('',#93,3.28E0);
#95=CARTESIAN_POINT('',(-1.64E0,1.2E0,1.35E0));
#96=LINE('',#95,#94);
#97=DIRECTION('',(0.E0,0.E0,-1.E0));
#98=VECTOR('',#97,2.7E0);
#99=CARTESIAN_POINT('',(-1.64E0,1.2E0,1.35E0));
#100=LINE('',#99,#98);
#101=DIRECTION('',(-1.E0,0.E0,0.E0));
#102=VECTOR('',#101,3.28E0);
#103=CARTESIAN_POINT('',(1.64E0,1.2E0,-1.35E0));
#104=LINE('',#103,#102);
#105=DIRECTION('',(0.E0,0.E0,-1.E0));
#106=VECTOR('',#105,2.7E0);
#107=CARTESIAN_POINT('',(1.65E0,1.2E0,1.35E0));
#108=LINE('',#107,#106);
#109=DIRECTION('',(-1.E0,0.E0,0.E0));
#110=VECTOR('',#109,1.E0);
#111=CARTESIAN_POINT('',(2.65E0,1.2E0,-1.35E0));
#112=LINE('',#111,#110);
#113=DIRECTION('',(0.E0,0.E0,-1.E0));
#114=VECTOR('',#113,2.7E0);
#115=CARTESIAN_POINT('',(2.65E0,1.2E0,1.35E0));
#116=LINE('',#115,#114);
#117=DIRECTION('',(1.E0,0.E0,0.E0));
#118=VECTOR('',#117,1.E0);
#119=CARTESIAN_POINT('',(1.65E0,1.2E0,1.35E0));
#120=LINE('',#119,#118);
#121=DIRECTION('',(0.E0,0.E0,-1.E0));
#122=VECTOR('',#121,2.7E0);
#123=CARTESIAN_POINT('',(-1.65E0,1.2E0,1.35E0));
#124=LINE('',#123,#122);
#125=DIRECTION('',(1.E0,0.E0,0.E0));
#126=VECTOR('',#125,1.E0);
#127=CARTESIAN_POINT('',(-2.65E0,1.2E0,1.35E0));
#128=LINE('',#127,#126);
#129=DIRECTION('',(0.E0,0.E0,1.E0));
#130=VECTOR('',#129,2.7E0);
#131=CARTESIAN_POINT('',(-2.65E0,1.2E0,-1.35E0));
#132=LINE('',#131,#130);
#133=DIRECTION('',(-1.E0,0.E0,0.E0));
#134=VECTOR('',#133,1.E0);
#135=CARTESIAN_POINT('',(-1.65E0,1.2E0,-1.35E0));
#136=LINE('',#135,#134);
#137=DIRECTION('',(1.E0,0.E0,-2.220446049250E-14));
#138=VECTOR('',#137,1.E-2);
#139=CARTESIAN_POINT('',(-1.65E0,1.19E0,-1.35E0));
#140=LINE('',#139,#138);
#141=DIRECTION('',(0.E0,-1.E0,0.E0));
#142=VECTOR('',#141,1.E-2);
#143=CARTESIAN_POINT('',(-1.65E0,1.2E0,-1.35E0));
#144=LINE('',#143,#142);
#145=DIRECTION('',(0.E0,1.E0,0.E0));
#146=VECTOR('',#145,2.E-1);
#147=CARTESIAN_POINT('',(-1.89E0,0.E0,-1.35E0));
#148=LINE('',#147,#146);
#149=DIRECTION('',(1.E0,0.E0,0.E0));
#150=VECTOR('',#149,5.8E-1);
#151=CARTESIAN_POINT('',(-1.89E0,2.E-1,-1.35E0));
#152=LINE('',#151,#150);
#153=DIRECTION('',(0.E0,1.E0,0.E0));
#154=VECTOR('',#153,2.E-1);
#155=CARTESIAN_POINT('',(-1.31E0,0.E0,-1.35E0));
#156=LINE('',#155,#154);
#157=DIRECTION('',(0.E0,1.E0,0.E0));
#158=VECTOR('',#157,1.2E0);
#159=CARTESIAN_POINT('',(2.65E0,0.E0,-1.35E0));
#160=LINE('',#159,#158);
#161=DIRECTION('',(0.E0,-1.E0,2.220446049250E-14));
#162=VECTOR('',#161,1.E-2);
#163=CARTESIAN_POINT('',(1.65E0,1.2E0,-1.35E0));
#164=LINE('',#163,#162);
#165=DIRECTION('',(1.E0,0.E0,-2.220446049250E-14));
#166=VECTOR('',#165,1.E-2);
#167=CARTESIAN_POINT('',(1.64E0,1.19E0,-1.35E0));
#168=LINE('',#167,#166);
#169=DIRECTION('',(0.E0,-1.E0,0.E0));
#170=VECTOR('',#169,1.E-2);
#171=CARTESIAN_POINT('',(1.64E0,1.2E0,-1.35E0));
#172=LINE('',#171,#170);
#173=DIRECTION('',(0.E0,-1.E0,2.220446049250E-14));
#174=VECTOR('',#173,1.E-2);
#175=CARTESIAN_POINT('',(-1.64E0,1.2E0,-1.35E0));
#176=LINE('',#175,#174);
#177=DIRECTION('',(0.E0,1.E0,0.E0));
#178=VECTOR('',#177,1.2E0);
#179=CARTESIAN_POINT('',(-2.65E0,0.E0,-1.35E0));
#180=LINE('',#179,#178);
#181=DIRECTION('',(0.E0,0.E0,1.E0));
#182=VECTOR('',#181,2.7E0);
#183=CARTESIAN_POINT('',(-1.31E0,2.E-1,-1.35E0));
#184=LINE('',#183,#182);
#185=DIRECTION('',(0.E0,0.E0,-1.E0));
#186=VECTOR('',#185,2.7E0);
#187=CARTESIAN_POINT('',(-1.89E0,2.E-1,1.35E0));
#188=LINE('',#187,#186);
#189=DIRECTION('',(0.E0,1.E0,0.E0));
#190=VECTOR('',#189,1.2E0);
#191=CARTESIAN_POINT('',(2.65E0,0.E0,1.35E0));
#192=LINE('',#191,#190);
#193=CARTESIAN_POINT('',(-2.65E0,0.E0,-1.35E0));
#194=CARTESIAN_POINT('',(-2.65E0,0.E0,1.35E0));
#195=VERTEX_POINT('',#193);
#196=VERTEX_POINT('',#194);
#197=CARTESIAN_POINT('',(2.65E0,0.E0,1.35E0));
#198=CARTESIAN_POINT('',(2.65E0,0.E0,-1.35E0));
#199=VERTEX_POINT('',#197);
#200=VERTEX_POINT('',#198);
#201=CARTESIAN_POINT('',(-2.65E0,1.2E0,-1.35E0));
#202=CARTESIAN_POINT('',(-2.65E0,1.2E0,1.35E0));
#203=VERTEX_POINT('',#201);
#204=VERTEX_POINT('',#202);
#205=CARTESIAN_POINT('',(2.65E0,1.2E0,1.35E0));
#206=CARTESIAN_POINT('',(2.65E0,1.2E0,-1.35E0));
#207=VERTEX_POINT('',#205);
#208=VERTEX_POINT('',#206);
#209=CARTESIAN_POINT('',(-1.89E0,2.E-1,1.35E0));
#210=CARTESIAN_POINT('',(-1.31E0,2.E-1,1.35E0));
#211=VERTEX_POINT('',#209);
#212=VERTEX_POINT('',#210);
#213=CARTESIAN_POINT('',(-1.89E0,2.E-1,-1.35E0));
#214=CARTESIAN_POINT('',(-1.31E0,2.E-1,-1.35E0));
#215=VERTEX_POINT('',#213);
#216=VERTEX_POINT('',#214);
#217=CARTESIAN_POINT('',(-1.89E0,0.E0,1.35E0));
#218=VERTEX_POINT('',#217);
#219=CARTESIAN_POINT('',(-1.31E0,0.E0,1.35E0));
#220=VERTEX_POINT('',#219);
#221=CARTESIAN_POINT('',(-1.31E0,0.E0,-1.35E0));
#222=VERTEX_POINT('',#221);
#223=CARTESIAN_POINT('',(-1.89E0,0.E0,-1.35E0));
#224=VERTEX_POINT('',#223);
#225=CARTESIAN_POINT('',(1.64E0,1.2E0,1.35E0));
#226=CARTESIAN_POINT('',(1.64E0,1.2E0,-1.35E0));
#227=VERTEX_POINT('',#225);
#228=VERTEX_POINT('',#226);
#229=CARTESIAN_POINT('',(1.65E0,1.2E0,1.35E0));
#230=CARTESIAN_POINT('',(1.65E0,1.2E0,-1.35E0));
#231=VERTEX_POINT('',#229);
#232=VERTEX_POINT('',#230);
#233=CARTESIAN_POINT('',(-1.65E0,1.2E0,1.35E0));
#234=CARTESIAN_POINT('',(-1.65E0,1.2E0,-1.35E0));
#235=VERTEX_POINT('',#233);
#236=VERTEX_POINT('',#234);
#237=CARTESIAN_POINT('',(-1.64E0,1.2E0,1.35E0));
#238=CARTESIAN_POINT('',(-1.64E0,1.2E0,-1.35E0));
#239=VERTEX_POINT('',#237);
#240=VERTEX_POINT('',#238);
#241=CARTESIAN_POINT('',(-1.65E0,1.19E0,1.35E0));
#242=CARTESIAN_POINT('',(-1.64E0,1.19E0,1.35E0));
#243=VERTEX_POINT('',#241);
#244=VERTEX_POINT('',#242);
#245=CARTESIAN_POINT('',(1.64E0,1.19E0,1.35E0));
#246=CARTESIAN_POINT('',(1.65E0,1.19E0,1.35E0));
#247=VERTEX_POINT('',#245);
#248=VERTEX_POINT('',#246);
#249=CARTESIAN_POINT('',(-1.65E0,1.19E0,-1.35E0));
#250=CARTESIAN_POINT('',(-1.64E0,1.19E0,-1.35E0));
#251=VERTEX_POINT('',#249);
#252=VERTEX_POINT('',#250);
#253=CARTESIAN_POINT('',(1.64E0,1.19E0,-1.35E0));
#254=CARTESIAN_POINT('',(1.65E0,1.19E0,-1.35E0));
#255=VERTEX_POINT('',#253);
#256=VERTEX_POINT('',#254);
#257=CARTESIAN_POINT('',(0.E0,0.E0,0.E0));
#258=DIRECTION('',(0.E0,1.E0,0.E0));
#259=DIRECTION('',(1.E0,0.E0,0.E0));
#260=AXIS2_PLACEMENT_3D('',#257,#258,#259);
#261=PLANE('',#260);
#263=ORIENTED_EDGE('',*,*,#262,.T.);
#265=ORIENTED_EDGE('',*,*,#264,.T.);
#267=ORIENTED_EDGE('',*,*,#266,.T.);
#269=ORIENTED_EDGE('',*,*,#268,.T.);
#270=EDGE_LOOP('',(#263,#265,#267,#269));
#271=FACE_OUTER_BOUND('',#270,.F.);
#273=CARTESIAN_POINT('',(0.E0,0.E0,0.E0));
#274=DIRECTION('',(0.E0,1.E0,0.E0));
#275=DIRECTION('',(1.E0,0.E0,0.E0));
#276=AXIS2_PLACEMENT_3D('',#273,#274,#275);
#277=PLANE('',#276);
#279=ORIENTED_EDGE('',*,*,#278,.T.);
#281=ORIENTED_EDGE('',*,*,#280,.T.);
#283=ORIENTED_EDGE('',*,*,#282,.T.);
#285=ORIENTED_EDGE('',*,*,#284,.F.);
#286=EDGE_LOOP('',(#279,#281,#283,#285));
#287=FACE_OUTER_BOUND('',#286,.F.);
#289=CARTESIAN_POINT('',(-2.65E0,0.E0,1.35E0));
#290=DIRECTION('',(0.E0,0.E0,1.E0));
#291=DIRECTION('',(1.E0,0.E0,0.E0));
#292=AXIS2_PLACEMENT_3D('',#289,#290,#291);
#293=PLANE('',#292);
#295=ORIENTED_EDGE('',*,*,#294,.T.);
#297=ORIENTED_EDGE('',*,*,#296,.F.);
#299=ORIENTED_EDGE('',*,*,#298,.T.);
#301=ORIENTED_EDGE('',*,*,#300,.T.);
#303=ORIENTED_EDGE('',*,*,#302,.T.);
#305=ORIENTED_EDGE('',*,*,#304,.F.);
#307=ORIENTED_EDGE('',*,*,#306,.T.);
#309=ORIENTED_EDGE('',*,*,#308,.F.);
#310=ORIENTED_EDGE('',*,*,#278,.F.);
#312=ORIENTED_EDGE('',*,*,#311,.T.);
#314=ORIENTED_EDGE('',*,*,#313,.F.);
#316=ORIENTED_EDGE('',*,*,#315,.F.);
#317=ORIENTED_EDGE('',*,*,#262,.F.);
#319=ORIENTED_EDGE('',*,*,#318,.T.);
#321=ORIENTED_EDGE('',*,*,#320,.T.);
#323=ORIENTED_EDGE('',*,*,#322,.T.);
#324=EDGE_LOOP('',(#295,#297,#299,#301,#303,#305,#307,#309,#310,#312,#314,#316,
#317,#319,#321,#323));
#325=FACE_OUTER_BOUND('',#324,.F.);
#327=CARTESIAN_POINT('',(0.E0,1.19E0,0.E0));
#328=DIRECTION('',(0.E0,1.E0,0.E0));
#329=DIRECTION('',(1.E0,0.E0,0.E0));
#330=AXIS2_PLACEMENT_3D('',#327,#328,#329);
#331=PLANE('',#330);
#332=ORIENTED_EDGE('',*,*,#294,.F.);
#334=ORIENTED_EDGE('',*,*,#333,.F.);
#336=ORIENTED_EDGE('',*,*,#335,.T.);
#338=ORIENTED_EDGE('',*,*,#337,.F.);
#339=EDGE_LOOP('',(#332,#334,#336,#338));
#340=FACE_OUTER_BOUND('',#339,.F.);
#342=CARTESIAN_POINT('',(0.E0,1.19E0,0.E0));
#343=DIRECTION('',(0.E0,1.E0,0.E0));
#344=DIRECTION('',(1.E0,0.E0,0.E0));
#345=AXIS2_PLACEMENT_3D('',#342,#343,#344);
#346=PLANE('',#345);
#347=ORIENTED_EDGE('',*,*,#302,.F.);
#349=ORIENTED_EDGE('',*,*,#348,.F.);
#351=ORIENTED_EDGE('',*,*,#350,.T.);
#353=ORIENTED_EDGE('',*,*,#352,.F.);
#354=EDGE_LOOP('',(#347,#349,#351,#353));
#355=FACE_OUTER_BOUND('',#354,.F.);
#357=CARTESIAN_POINT('',(-1.65E0,1.2E0,-1.427737789193E0));
#358=DIRECTION('',(-1.E0,0.E0,0.E0));
#359=DIRECTION('',(0.E0,0.E0,1.E0));
#360=AXIS2_PLACEMENT_3D('',#357,#358,#359);
#361=PLANE('',#360);
#363=ORIENTED_EDGE('',*,*,#362,.T.);
#365=ORIENTED_EDGE('',*,*,#364,.T.);
#366=ORIENTED_EDGE('',*,*,#333,.T.);
#367=ORIENTED_EDGE('',*,*,#322,.F.);
#368=EDGE_LOOP('',(#363,#365,#366,#367));
#369=FACE_OUTER_BOUND('',#368,.F.);
#371=CARTESIAN_POINT('',(0.E0,1.2E0,0.E0));
#372=DIRECTION('',(0.E0,1.E0,0.E0));
#373=DIRECTION('',(1.E0,0.E0,0.E0));
#374=AXIS2_PLACEMENT_3D('',#371,#372,#373);
#375=PLANE('',#374);
#377=ORIENTED_EDGE('',*,*,#376,.F.);
#378=ORIENTED_EDGE('',*,*,#298,.F.);
#380=ORIENTED_EDGE('',*,*,#379,.T.);
#382=ORIENTED_EDGE('',*,*,#381,.F.);
#383=EDGE_LOOP('',(#377,#378,#380,#382));
#384=FACE_OUTER_BOUND('',#383,.F.);
#386=CARTESIAN_POINT('',(0.E0,1.2E0,0.E0));
#387=DIRECTION('',(0.E0,1.E0,0.E0));
#388=DIRECTION('',(1.E0,0.E0,0.E0));
#389=AXIS2_PLACEMENT_3D('',#386,#387,#388);
#390=PLANE('',#389);
#392=ORIENTED_EDGE('',*,*,#391,.T.);
#394=ORIENTED_EDGE('',*,*,#393,.F.);
#396=ORIENTED_EDGE('',*,*,#395,.F.);
#397=ORIENTED_EDGE('',*,*,#306,.F.);
#398=EDGE_LOOP('',(#392,#394,#396,#397));
#399=FACE_OUTER_BOUND('',#398,.F.);
#401=CARTESIAN_POINT('',(0.E0,1.2E0,0.E0));
#402=DIRECTION('',(0.E0,1.E0,0.E0));
#403=DIRECTION('',(1.E0,0.E0,0.E0));
#404=AXIS2_PLACEMENT_3D('',#401,#402,#403);
#405=PLANE('',#404);
#406=ORIENTED_EDGE('',*,*,#362,.F.);
#407=ORIENTED_EDGE('',*,*,#320,.F.);
#409=ORIENTED_EDGE('',*,*,#408,.F.);
#411=ORIENTED_EDGE('',*,*,#410,.F.);
#412=EDGE_LOOP('',(#406,#407,#409,#411));
#413=FACE_OUTER_BOUND('',#412,.F.);
#415=CARTESIAN_POINT('',(1.64E0,1.2E0,-1.427737789193E0));
#416=DIRECTION('',(-1.E0,0.E0,0.E0));
#417=DIRECTION('',(0.E0,0.E0,1.E0));
#418=AXIS2_PLACEMENT_3D('',#415,#416,#417);
#419=PLANE('',#418);
#420=ORIENTED_EDGE('',*,*,#376,.T.);
#422=ORIENTED_EDGE('',*,*,#421,.T.);
#423=ORIENTED_EDGE('',*,*,#348,.T.);
#424=ORIENTED_EDGE('',*,*,#300,.F.);
#425=EDGE_LOOP('',(#420,#422,#423,#424));
#426=FACE_OUTER_BOUND('',#425,.F.);
#428=CARTESIAN_POINT('',(2.65E0,0.E0,-1.35E0));
#429=DIRECTION('',(0.E0,0.E0,-1.E0));
#430=DIRECTION('',(-1.E0,0.E0,0.E0));
#431=AXIS2_PLACEMENT_3D('',#428,#429,#430);
#432=PLANE('',#431);
#433=ORIENTED_EDGE('',*,*,#335,.F.);
#434=ORIENTED_EDGE('',*,*,#364,.F.);
#435=ORIENTED_EDGE('',*,*,#410,.T.);
#437=ORIENTED_EDGE('',*,*,#436,.F.);
#438=ORIENTED_EDGE('',*,*,#266,.F.);
#440=ORIENTED_EDGE('',*,*,#439,.T.);
#442=ORIENTED_EDGE('',*,*,#441,.T.);
#444=ORIENTED_EDGE('',*,*,#443,.F.);
#445=ORIENTED_EDGE('',*,*,#282,.F.);
#447=ORIENTED_EDGE('',*,*,#446,.T.);
#448=ORIENTED_EDGE('',*,*,#393,.T.);
#450=ORIENTED_EDGE('',*,*,#449,.T.);
#451=ORIENTED_EDGE('',*,*,#350,.F.);
#452=ORIENTED_EDGE('',*,*,#421,.F.);
#453=ORIENTED_EDGE('',*,*,#381,.T.);
#455=ORIENTED_EDGE('',*,*,#454,.T.);
#456=EDGE_LOOP('',(#433,#434,#435,#437,#438,#440,#442,#444,#445,#447,#448,#450,
#451,#452,#453,#455));
#457=FACE_OUTER_BOUND('',#456,.F.);
#459=CARTESIAN_POINT('',(-2.65E0,0.E0,-1.35E0));
#460=DIRECTION('',(-1.E0,0.E0,0.E0));
#461=DIRECTION('',(0.E0,0.E0,1.E0));
#462=AXIS2_PLACEMENT_3D('',#459,#460,#461);
#463=PLANE('',#462);
#464=ORIENTED_EDGE('',*,*,#268,.F.);
#465=ORIENTED_EDGE('',*,*,#436,.T.);
#466=ORIENTED_EDGE('',*,*,#408,.T.);
#467=ORIENTED_EDGE('',*,*,#318,.F.);
#468=EDGE_LOOP('',(#464,#465,#466,#467));
#469=FACE_OUTER_BOUND('',#468,.F.);
#471=CARTESIAN_POINT('',(-1.89E0,0.E0,1.35E0));
#472=DIRECTION('',(-1.E0,0.E0,0.E0));
#473=DIRECTION('',(0.E0,0.E0,-1.E0));
#474=AXIS2_PLACEMENT_3D('',#471,#472,#473);
#475=PLANE('',#474);
#476=ORIENTED_EDGE('',*,*,#264,.F.);
#477=ORIENTED_EDGE('',*,*,#315,.T.);
#479=ORIENTED_EDGE('',*,*,#478,.T.);
#480=ORIENTED_EDGE('',*,*,#439,.F.);
#481=EDGE_LOOP('',(#476,#477,#479,#480));
#482=FACE_OUTER_BOUND('',#481,.F.);
#484=CARTESIAN_POINT('',(0.E0,2.E-1,0.E0));
#485=DIRECTION('',(0.E0,-1.E0,0.E0));
#486=DIRECTION('',(1.E0,0.E0,0.E0));
#487=AXIS2_PLACEMENT_3D('',#484,#485,#486);
#488=PLANE('',#487);
#489=ORIENTED_EDGE('',*,*,#313,.T.);
#491=ORIENTED_EDGE('',*,*,#490,.F.);
#492=ORIENTED_EDGE('',*,*,#441,.F.);
#493=ORIENTED_EDGE('',*,*,#478,.F.);
#494=EDGE_LOOP('',(#489,#491,#492,#493));
#495=FACE_OUTER_BOUND('',#494,.F.);
#497=CARTESIAN_POINT('',(-1.31E0,0.E0,-1.35E0));
#498=DIRECTION('',(1.E0,0.E0,0.E0));
#499=DIRECTION('',(0.E0,0.E0,1.E0));
#500=AXIS2_PLACEMENT_3D('',#497,#498,#499);
#501=PLANE('',#500);
#502=ORIENTED_EDGE('',*,*,#284,.T.);
#503=ORIENTED_EDGE('',*,*,#443,.T.);
#504=ORIENTED_EDGE('',*,*,#490,.T.);
#505=ORIENTED_EDGE('',*,*,#311,.F.);
#506=EDGE_LOOP('',(#502,#503,#504,#505));
#507=FACE_OUTER_BOUND('',#506,.F.);
#509=CARTESIAN_POINT('',(2.65E0,0.E0,1.35E0));
#510=DIRECTION('',(1.E0,0.E0,0.E0));
#511=DIRECTION('',(0.E0,0.E0,-1.E0));
#512=AXIS2_PLACEMENT_3D('',#509,#510,#511);
#513=PLANE('',#512);
#514=ORIENTED_EDGE('',*,*,#280,.F.);
#515=ORIENTED_EDGE('',*,*,#308,.T.);
#516=ORIENTED_EDGE('',*,*,#395,.T.);
#517=ORIENTED_EDGE('',*,*,#446,.F.);
#518=EDGE_LOOP('',(#514,#515,#516,#517));
#519=FACE_OUTER_BOUND('',#518,.F.);
#521=CARTESIAN_POINT('',(1.65E0,1.2E0,1.427737789193E0));
#522=DIRECTION('',(1.E0,0.E0,0.E0));
#523=DIRECTION('',(0.E0,0.E0,-1.E0));
#524=AXIS2_PLACEMENT_3D('',#521,#522,#523);
#525=PLANE('',#524);
#526=ORIENTED_EDGE('',*,*,#391,.F.);
#527=ORIENTED_EDGE('',*,*,#304,.T.);
#528=ORIENTED_EDGE('',*,*,#352,.T.);
#529=ORIENTED_EDGE('',*,*,#449,.F.);
#530=EDGE_LOOP('',(#526,#527,#528,#529));
#531=FACE_OUTER_BOUND('',#530,.F.);
#533=CARTESIAN_POINT('',(-1.64E0,1.2E0,1.427737789193E0));
#534=DIRECTION('',(1.E0,0.E0,0.E0));
#535=DIRECTION('',(0.E0,0.E0,-1.E0));
#536=AXIS2_PLACEMENT_3D('',#533,#534,#535);
#537=PLANE('',#536);
#538=ORIENTED_EDGE('',*,*,#379,.F.);
#539=ORIENTED_EDGE('',*,*,#296,.T.);
#540=ORIENTED_EDGE('',*,*,#337,.T.);
#541=ORIENTED_EDGE('',*,*,#454,.F.);
#542=EDGE_LOOP('',(#538,#539,#540,#541));
#543=FACE_OUTER_BOUND('',#542,.F.);
#545=CLOSED_SHELL('',(#272,#288,#326,#341,#356,#370,#385,#400,#414,#427,#458,
#470,#483,#496,#508,#520,#532,#544));
#546=MANIFOLD_SOLID_BREP('',#545);
#548=DIMENSIONAL_EXPONENTS(0.E0,0.E0,0.E0,0.E0,0.E0,0.E0,0.E0);
#550=PLANE_ANGLE_MEASURE_WITH_UNIT(PLANE_ANGLE_MEASURE(1.745329251994E-2),#549);
#551=(CONVERSION_BASED_UNIT('DEGREE',#550)NAMED_UNIT(*)PLANE_ANGLE_UNIT());
#553=UNCERTAINTY_MEASURE_WITH_UNIT(LENGTH_MEASURE(2.557692853453E-4),#547,
'closure',
'Maximum model space distance between geometric entities at asserted connectivities');
#556=APPLICATION_CONTEXT(
'CONFIGURATION CONTROLLED 3D DESIGNS OF MECHANICAL PARTS AND ASSEMBLIES');
#557=APPLICATION_PROTOCOL_DEFINITION('international standard',
'config_control_design',1994,#556);
#558=DESIGN_CONTEXT('',#556,'design');
#559=MECHANICAL_CONTEXT('',#556,'mechanical');
#560=PRODUCT('CHF2010CNP500L','CHF2010CNP500L','NOT SPECIFIED',(#559));
#561=PRODUCT_DEFINITION_FORMATION_WITH_SPECIFIED_SOURCE('1','LAST_VERSION',#560,
.MADE.);
#565=PRODUCT_CATEGORY('part','');
#566=PRODUCT_RELATED_PRODUCT_CATEGORY('detail','',(#560));
#567=PRODUCT_CATEGORY_RELATIONSHIP('','',#565,#566);
#568=SECURITY_CLASSIFICATION_LEVEL('unclassified');
#569=SECURITY_CLASSIFICATION('','',#568);
#570=CC_DESIGN_SECURITY_CLASSIFICATION(#569,(#561));
#571=APPROVAL_STATUS('approved');
#572=APPROVAL(#571,'');
#573=CC_DESIGN_APPROVAL(#572,(#569,#561,#562));
#574=CALENDAR_DATE(112,20,8);
#575=COORDINATED_UNIVERSAL_TIME_OFFSET(7,0,.BEHIND.);
#576=LOCAL_TIME(10,36,5.7E1,#575);
#577=DATE_AND_TIME(#574,#576);
#578=APPROVAL_DATE_TIME(#577,#572);
#579=DATE_TIME_ROLE('creation_date');
#580=CC_DESIGN_DATE_AND_TIME_ASSIGNMENT(#577,#579,(#562));
#581=DATE_TIME_ROLE('classification_date');
#582=CC_DESIGN_DATE_AND_TIME_ASSIGNMENT(#577,#581,(#569));
#583=PERSON('UNSPECIFIED','UNSPECIFIED',$,$,$,$);
#584=ORGANIZATION('UNSPECIFIED','UNSPECIFIED','UNSPECIFIED');
#585=PERSON_AND_ORGANIZATION(#583,#584);
#586=APPROVAL_ROLE('approver');
#587=APPROVAL_PERSON_ORGANIZATION(#585,#572,#586);
#588=PERSON_AND_ORGANIZATION_ROLE('creator');
#589=CC_DESIGN_PERSON_AND_ORGANIZATION_ASSIGNMENT(#585,#588,(#561,#562));
#590=PERSON_AND_ORGANIZATION_ROLE('design_supplier');
#591=CC_DESIGN_PERSON_AND_ORGANIZATION_ASSIGNMENT(#585,#590,(#561));
#592=PERSON_AND_ORGANIZATION_ROLE('classification_officer');
#593=CC_DESIGN_PERSON_AND_ORGANIZATION_ASSIGNMENT(#585,#592,(#569));
#594=PERSON_AND_ORGANIZATION_ROLE('design_owner');
#595=CC_DESIGN_PERSON_AND_ORGANIZATION_ASSIGNMENT(#585,#594,(#560));
#262=EDGE_CURVE('',#196,#218,#4,.T.);
#264=EDGE_CURVE('',#218,#224,#8,.T.);
#266=EDGE_CURVE('',#224,#195,#12,.T.);
#268=EDGE_CURVE('',#195,#196,#16,.T.);
#272=ADVANCED_FACE('',(#271),#261,.F.);
#278=EDGE_CURVE('',#220,#199,#20,.T.);
#280=EDGE_CURVE('',#199,#200,#24,.T.);
#282=EDGE_CURVE('',#200,#222,#28,.T.);
#284=EDGE_CURVE('',#220,#222,#32,.T.);
#288=ADVANCED_FACE('',(#287),#277,.F.);
#294=EDGE_CURVE('',#243,#244,#36,.T.);
#296=EDGE_CURVE('',#239,#244,#40,.T.);
#298=EDGE_CURVE('',#239,#227,#96,.T.);
#300=EDGE_CURVE('',#227,#247,#44,.T.);
#302=EDGE_CURVE('',#247,#248,#48,.T.);
#304=EDGE_CURVE('',#231,#248,#52,.T.);
#306=EDGE_CURVE('',#231,#207,#120,.T.);
#308=EDGE_CURVE('',#199,#207,#192,.T.);
#311=EDGE_CURVE('',#220,#212,#56,.T.);
#313=EDGE_CURVE('',#211,#212,#60,.T.);
#315=EDGE_CURVE('',#218,#211,#64,.T.);
#318=EDGE_CURVE('',#196,#204,#68,.T.);
#320=EDGE_CURVE('',#204,#235,#128,.T.);
#322=EDGE_CURVE('',#235,#243,#72,.T.);
#326=ADVANCED_FACE('',(#325),#293,.T.);
#333=EDGE_CURVE('',#251,#243,#76,.T.);
#335=EDGE_CURVE('',#251,#252,#140,.T.);
#337=EDGE_CURVE('',#244,#252,#80,.T.);
#341=ADVANCED_FACE('',(#340),#331,.T.);
#348=EDGE_CURVE('',#255,#247,#84,.T.);
#350=EDGE_CURVE('',#255,#256,#168,.T.);
#352=EDGE_CURVE('',#248,#256,#88,.T.);
#356=ADVANCED_FACE('',(#355),#346,.T.);
#362=EDGE_CURVE('',#235,#236,#124,.T.);
#364=EDGE_CURVE('',#236,#251,#144,.T.);
#370=ADVANCED_FACE('',(#369),#361,.F.);
#376=EDGE_CURVE('',#227,#228,#92,.T.);
#379=EDGE_CURVE('',#239,#240,#100,.T.);
#381=EDGE_CURVE('',#228,#240,#104,.T.);
#385=ADVANCED_FACE('',(#384),#375,.T.);
#391=EDGE_CURVE('',#231,#232,#108,.T.);
#393=EDGE_CURVE('',#208,#232,#112,.T.);
#395=EDGE_CURVE('',#207,#208,#116,.T.);
#400=ADVANCED_FACE('',(#399),#390,.T.);
#408=EDGE_CURVE('',#203,#204,#132,.T.);
#410=EDGE_CURVE('',#236,#203,#136,.T.);
#414=ADVANCED_FACE('',(#413),#405,.T.);
#421=EDGE_CURVE('',#228,#255,#172,.T.);
#427=ADVANCED_FACE('',(#426),#419,.F.);
#436=EDGE_CURVE('',#195,#203,#180,.T.);
#439=EDGE_CURVE('',#224,#215,#148,.T.);
#441=EDGE_CURVE('',#215,#216,#152,.T.);
#443=EDGE_CURVE('',#222,#216,#156,.T.);
#446=EDGE_CURVE('',#200,#208,#160,.T.);
#449=EDGE_CURVE('',#232,#256,#164,.T.);
#454=EDGE_CURVE('',#240,#252,#176,.T.);
#458=ADVANCED_FACE('',(#457),#432,.T.);
#470=ADVANCED_FACE('',(#469),#463,.T.);
#478=EDGE_CURVE('',#211,#215,#188,.T.);
#483=ADVANCED_FACE('',(#482),#475,.F.);
#490=EDGE_CURVE('',#216,#212,#184,.T.);
#496=ADVANCED_FACE('',(#495),#488,.T.);
#508=ADVANCED_FACE('',(#507),#501,.F.);
#520=ADVANCED_FACE('',(#519),#513,.T.);
#532=ADVANCED_FACE('',(#531),#525,.F.);
#544=ADVANCED_FACE('',(#543),#537,.F.);
#547=(LENGTH_UNIT()NAMED_UNIT(*)SI_UNIT(.MILLI.,.METRE.));
#549=(NAMED_UNIT(*)PLANE_ANGLE_UNIT()SI_UNIT($,.RADIAN.));
#552=(NAMED_UNIT(*)SI_UNIT($,.STERADIAN.)SOLID_ANGLE_UNIT());
#554=(GEOMETRIC_REPRESENTATION_CONTEXT(3)GLOBAL_UNCERTAINTY_ASSIGNED_CONTEXT((
#553))GLOBAL_UNIT_ASSIGNED_CONTEXT((#547,#551,#552))REPRESENTATION_CONTEXT
('ID1','3'));
#555=ADVANCED_BREP_SHAPE_REPRESENTATION('',(#546),#554);
#562=PRODUCT_DEFINITION('design','',#561,#558);
#563=PRODUCT_DEFINITION_SHAPE('','SHAPE FOR CHF2010CNP500L.',#562);
#564=SHAPE_DEFINITION_REPRESENTATION(#563,#555);
ENDSEC;
END-ISO-10303-21;
